ISO-10303-21;
HEADER;
FILE_DESCRIPTION (( 'STEP AP203' ),
    '1' );
FILE_NAME ('WD24_Default.step',
    '2023-12-20T19:45:22',
    ( 'Windows User' ),
    ( 'AUTOMATION DIRECT' ),
    'SwSTEP 2.0',
    'SolidWorks 2023',
    '' );
FILE_SCHEMA (( 'CONFIG_CONTROL_DESIGN' ));
ENDSEC;

DATA;
#1 = PERSON_AND_ORGANIZATION_ROLE ( 'design_owner' ) ;
#2 = CLOSED_SHELL ( 'NONE', ( #27, #37, #48, #149, #130, #194 ) ) ;
#3 = PERSON_AND_ORGANIZATION ( #167, #230 ) ;
#4 = CC_DESIGN_PERSON_AND_ORGANIZATION_ASSIGNMENT ( #155, #169, ( #73 ) ) ;
#5 = COORDINATED_UNIVERSAL_TIME_OFFSET ( 5, 0, .BEHIND. ) ;
#6 = LOCAL_TIME ( 14, 45, 22.00000000000000000, #204 ) ;
#7 = VERTEX_POINT ( 'NONE', #218 ) ;
#8 = LOCAL_TIME ( 14, 45, 22.00000000000000000, #5 ) ;
#9 = ORIENTED_EDGE ( 'NONE', *, *, #236, .T. ) ;
#10 = VECTOR ( 'NONE', #144, 39.37007874015748143 ) ;
#11 = LINE ( 'NONE', #52, #154 ) ;
#12 = DIRECTION ( 'NONE',  ( 0.000000000000000000, -1.000000000000000000, 0.000000000000000000 ) ) ;
#13 = DIRECTION ( 'NONE',  ( -1.000000000000000000, 0.000000000000000000, -5.709004786759599119E-17 ) ) ;
#14 = EDGE_LOOP ( 'NONE', ( #28, #232, #67, #107 ) ) ;
#15 = PERSON_AND_ORGANIZATION ( #167, #230 ) ;
#16 = COORDINATED_UNIVERSAL_TIME_OFFSET ( 5, 0, .BEHIND. ) ;
#17 = CALENDAR_DATE ( 2023, 20, 12 ) ;
#18 = EDGE_CURVE ( 'NONE', #7, #174, #120, .T. ) ;
#19 = APPROVAL_DATE_TIME ( #63, #196 ) ;
#20 = VECTOR ( 'NONE', #94, 39.37007874015748143 ) ;
#21 = DIRECTION ( 'NONE',  ( 0.000000000000000000, -1.000000000000000000, 0.000000000000000000 ) ) ;
#22 = ORIENTED_EDGE ( 'NONE', *, *, #217, .F. ) ;
#23 = CALENDAR_DATE ( 2023, 20, 12 ) ;
#24 = ORIENTED_EDGE ( 'NONE', *, *, #18, .F. ) ;
#25 = EDGE_CURVE ( 'NONE', #197, #189, #108, .T. ) ;
#26 = VECTOR ( 'NONE', #21, 39.37007874015748143 ) ;
#27 = ADVANCED_FACE ( 'NONE', ( #222 ), #32, .T. ) ;
#28 = ORIENTED_EDGE ( 'NONE', *, *, #142, .T. ) ;
#29 = AXIS2_PLACEMENT_3D ( 'NONE', #178, #162, #177 ) ;
#30 = EDGE_CURVE ( 'NONE', #197, #78, #71, .T. ) ;
#31 = PLANE ( 'NONE',  #171 ) ;
#32 = PLANE ( 'NONE',  #29 ) ;
#33 = UNCERTAINTY_MEASURE_WITH_UNIT (LENGTH_MEASURE( 1.000000000000000082E-05 ), #166, 'distance_accuracy_value', 'NONE');
#34 = VECTOR ( 'NONE', #127, 39.37007874015748143 ) ;
#35 = CARTESIAN_POINT ( 'NONE',  ( 12.25000000000000000, 0.000000000000000000, -4.200000000000000178 ) ) ;
#36 = CARTESIAN_POINT ( 'NONE',  ( -12.25000000000000000, 0.000000000000000000, 4.200000000000000178 ) ) ;
#37 = ADVANCED_FACE ( 'NONE', ( #72 ), #106, .T. ) ;
#38 = CARTESIAN_POINT ( 'NONE',  ( 12.25000000000000000, -0.2500000000000000000, -4.200000000000000178 ) ) ;
#39 = COORDINATED_UNIVERSAL_TIME_OFFSET ( 5, 0, .BEHIND. ) ;
#40 = CARTESIAN_POINT ( 'NONE',  ( 0.000000000000000000, -0.2500000000000000000, 0.000000000000000000 ) ) ;
#41 = MECHANICAL_CONTEXT ( 'NONE', #136, 'mechanical' ) ;
#42 = APPROVAL_STATUS ( 'not_yet_approved' ) ;
#43 = FACE_OUTER_BOUND ( 'NONE', #202, .T. ) ;
#44 = APPROVAL_ROLE ( '' ) ;
#45 = ORIENTED_EDGE ( 'NONE', *, *, #102, .F. ) ;
#46 = PERSON_AND_ORGANIZATION ( #167, #230 ) ;
#47 = EDGE_LOOP ( 'NONE', ( #104, #22, #45, #121 ) ) ;
#48 = ADVANCED_FACE ( 'NONE', ( #159 ), #145, .T. ) ;
#49 = ORIENTED_EDGE ( 'NONE', *, *, #30, .F. ) ;
#50 = DIRECTION ( 'NONE',  ( 1.000000000000000000, -0.000000000000000000, 5.709004786759599119E-17 ) ) ;
#51 = PRODUCT_DEFINITION_SHAPE ( 'NONE', 'NONE',  #238 ) ;
#52 = CARTESIAN_POINT ( 'NONE',  ( 6.025587226769211945E-16, 0.000000000000000000, -4.200000000000000178 ) ) ;
#53 = DIRECTION ( 'NONE',  ( -5.709004786759599119E-17, 0.000000000000000000, -1.000000000000000000 ) ) ;
#54 = AXIS2_PLACEMENT_3D ( 'NONE', #216, #176, #13 ) ;
#55 = EDGE_CURVE ( 'NONE', #7, #78, #240, .T. ) ;
#56 = DIRECTION ( 'NONE',  ( 0.000000000000000000, 0.000000000000000000, -1.000000000000000000 ) ) ;
#57 = CARTESIAN_POINT ( 'NONE',  ( 12.25000000000000000, 0.000000000000000000, -4.200000000000000178 ) ) ;
#58 = PRODUCT_RELATED_PRODUCT_CATEGORY ( 'detail', '', ( #75 ) ) ;
#59 = DIRECTION ( 'NONE',  ( 0.000000000000000000, -1.000000000000000000, 0.000000000000000000 ) ) ;
#60 = VECTOR ( 'NONE', #126, 39.37007874015748143 ) ;
#61 = DIRECTION ( 'NONE',  ( -0.000000000000000000, -0.000000000000000000, 1.000000000000000000 ) ) ;
#62 = CARTESIAN_POINT ( 'NONE',  ( 12.25000000000000000, -0.2500000000000000000, 4.200000000000000178 ) ) ;
#63 = DATE_AND_TIME ( #97, #150 ) ;
#64 = ADVANCED_BREP_SHAPE_REPRESENTATION ( 'WD24_Default', ( #99, #69 ), #205 ) ;
#65 = ORIENTED_EDGE ( 'NONE', *, *, #236, .F. ) ;
#66 = LOCAL_TIME ( 14, 45, 22.00000000000000000, #39 ) ;
#67 = ORIENTED_EDGE ( 'NONE', *, *, #55, .F. ) ;
#68 = ORIENTED_EDGE ( 'NONE', *, *, #179, .T. ) ;
#69 = AXIS2_PLACEMENT_3D ( 'NONE', #131, #229, #183 ) ;
#70 = FACE_OUTER_BOUND ( 'NONE', #47, .T. ) ;
#71 = LINE ( 'NONE', #239, #60 ) ;
#72 = FACE_OUTER_BOUND ( 'NONE', #14, .T. ) ;
#73 = PRODUCT_DEFINITION_FORMATION_WITH_SPECIFIED_SOURCE ( 'ANY', '', #75, .NOT_KNOWN. ) ;
#74 = LINE ( 'NONE', #237, #173 ) ;
#75 = PRODUCT ( 'WD24_Default', 'WD24_Default', '', ( #41 ) ) ;
#76 = APPLICATION_PROTOCOL_DEFINITION ( 'international standard', 'config_control_design', 1994, #231 ) ;
#77 = PLANE ( 'NONE',  #86 ) ;
#78 = VERTEX_POINT ( 'NONE', #123 ) ;
#79 = APPROVAL_DATE_TIME ( #98, #122 ) ;
#80 = PERSON_AND_ORGANIZATION ( #167, #230 ) ;
#81 =( NAMED_UNIT ( * ) PLANE_ANGLE_UNIT ( ) SI_UNIT ( $, .RADIAN. ) );
#82 = PERSON_AND_ORGANIZATION_ROLE ( 'classification_officer' ) ;
#83 = APPLICATION_PROTOCOL_DEFINITION ( 'international standard', 'config_control_design', 1994, #136 ) ;
#84 = PERSON_AND_ORGANIZATION_ROLE ( 'design_supplier' ) ;
#85 = DATE_AND_TIME ( #23, #8 ) ;
#86 = AXIS2_PLACEMENT_3D ( 'NONE', #40, #59, #184 ) ;
#87 = CC_DESIGN_DATE_AND_TIME_ASSIGNMENT ( #110, #181, ( #238 ) ) ;
#88 = VERTEX_POINT ( 'NONE', #125 ) ;
#89 = VERTEX_POINT ( 'NONE', #235 ) ;
#90 = LINE ( 'NONE', #92, #128 ) ;
#91 = DIMENSIONAL_EXPONENTS ( 1.000000000000000000, 0.000000000000000000, 0.000000000000000000, 0.000000000000000000, 0.000000000000000000, 0.000000000000000000, 0.000000000000000000 ) ;
#92 = CARTESIAN_POINT ( 'NONE',  ( 12.25000000000000000, -0.2500000000000000000, 4.200000000000000178 ) ) ;
#93 = ORIENTED_EDGE ( 'NONE', *, *, #100, .T. ) ;
#94 = DIRECTION ( 'NONE',  ( -1.665126396138219799E-16, -0.000000000000000000, -1.000000000000000000 ) ) ;
#95 = PERSON_AND_ORGANIZATION ( #167, #230 ) ;
#96 = APPROVAL_STATUS ( 'not_yet_approved' ) ;
#97 = CALENDAR_DATE ( 2023, 20, 12 ) ;
#98 = DATE_AND_TIME ( #17, #6 ) ;
#99 = MANIFOLD_SOLID_BREP ( 'Imported1', #2 ) ;
#100 = EDGE_CURVE ( 'NONE', #78, #139, #74, .T. ) ;
#101 = APPROVAL_DATE_TIME ( #85, #164 ) ;
#102 = EDGE_CURVE ( 'NONE', #139, #89, #11, .T. ) ;
#103 = ORIENTED_EDGE ( 'NONE', *, *, #25, .T. ) ;
#104 = ORIENTED_EDGE ( 'NONE', *, *, #207, .T. ) ;
#105 = DIRECTION ( 'NONE',  ( 1.665126396138219799E-16, 0.000000000000000000, 1.000000000000000000 ) ) ;
#106 = PLANE ( 'NONE',  #54 ) ;
#107 = ORIENTED_EDGE ( 'NONE', *, *, #18, .T. ) ;
#108 = LINE ( 'NONE', #38, #20 ) ;
#109 = DIRECTION ( 'NONE',  ( -1.000000000000000000, -0.000000000000000000, -0.000000000000000000 ) ) ;
#110 = DATE_AND_TIME ( #227, #66 ) ;
#111 = PERSON_AND_ORGANIZATION ( #167, #230 ) ;
#112 = APPROVAL_PERSON_ORGANIZATION ( #15, #164, #170 ) ;
#113 = DIRECTION ( 'NONE',  ( -1.000000000000000000, -0.000000000000000000, 5.709004786759599119E-17 ) ) ;
#114 = LINE ( 'NONE', #190, #34 ) ;
#115 = APPROVAL_ROLE ( '' ) ;
#116 = CC_DESIGN_PERSON_AND_ORGANIZATION_ASSIGNMENT ( #135, #84, ( #73 ) ) ;
#117 = CC_DESIGN_APPROVAL ( #164, ( #73 ) ) ;
#118 = ORIENTED_EDGE ( 'NONE', *, *, #55, .T. ) ;
#119 = CC_DESIGN_PERSON_AND_ORGANIZATION_ASSIGNMENT ( #80, #82, ( #193 ) ) ;
#120 = LINE ( 'NONE', #36, #133 ) ;
#121 = ORIENTED_EDGE ( 'NONE', *, *, #172, .T. ) ;
#122 = APPROVAL ( #208, 'UNSPECIFIED' ) ;
#123 = CARTESIAN_POINT ( 'NONE',  ( 12.25000000000000000, 0.000000000000000000, 4.200000000000000178 ) ) ;
#124 = VECTOR ( 'NONE', #12, 39.37007874015748143 ) ;
#125 = CARTESIAN_POINT ( 'NONE',  ( -12.25000000000000000, -0.2500000000000000000, -4.200000000000000178 ) ) ;
#126 = DIRECTION ( 'NONE',  ( -0.000000000000000000, 1.000000000000000000, -0.000000000000000000 ) ) ;
#127 = DIRECTION ( 'NONE',  ( -0.000000000000000000, -0.000000000000000000, 1.000000000000000000 ) ) ;
#128 = VECTOR ( 'NONE', #50, 39.37007874015748143 ) ;
#129 = DATE_AND_TIME ( #152, #201 ) ;
#130 = ADVANCED_FACE ( 'NONE', ( #147 ), #31, .T. ) ;
#131 = CARTESIAN_POINT ( 'NONE',  ( 0.000000000000000000, 0.000000000000000000, 0.000000000000000000 ) ) ;
#132 = COORDINATED_UNIVERSAL_TIME_OFFSET ( 5, 0, .BEHIND. ) ;
#133 = VECTOR ( 'NONE', #140, 39.37007874015748143 ) ;
#134 = CARTESIAN_POINT ( 'NONE',  ( -12.25000000000000000, 0.000000000000000000, 0.000000000000000000 ) ) ;
#135 = PERSON_AND_ORGANIZATION ( #167, #230 ) ;
#136 = APPLICATION_CONTEXT ( 'configuration controlled 3d designs of mechanical parts and assemblies' ) ;
#137 = EDGE_LOOP ( 'NONE', ( #68, #24, #65, #211 ) ) ;
#138 = CC_DESIGN_APPROVAL ( #196, ( #193 ) ) ;
#139 = VERTEX_POINT ( 'NONE', #175 ) ;
#140 = DIRECTION ( 'NONE',  ( 0.000000000000000000, -1.000000000000000000, 0.000000000000000000 ) ) ;
#141 = VECTOR ( 'NONE', #61, 39.37007874015748143 ) ;
#142 = EDGE_CURVE ( 'NONE', #174, #197, #90, .T. ) ;
#143 = CARTESIAN_POINT ( 'NONE',  ( -12.25000000000000000, 0.000000000000000000, -4.200000000000000178 ) ) ;
#144 = DIRECTION ( 'NONE',  ( 1.000000000000000000, 0.000000000000000000, 0.000000000000000000 ) ) ;
#145 = PLANE ( 'NONE',  #146 ) ;
#146 = AXIS2_PLACEMENT_3D ( 'NONE', #180, #215, #198 ) ;
#147 = FACE_OUTER_BOUND ( 'NONE', #157, .T. ) ;
#148 = CARTESIAN_POINT ( 'NONE',  ( 12.25000000000000000, -0.2500000000000000000, -4.200000000000000178 ) ) ;
#149 = ADVANCED_FACE ( 'NONE', ( #70 ), #161, .T. ) ;
#150 = LOCAL_TIME ( 14, 45, 22.00000000000000000, #16 ) ;
#151 = CARTESIAN_POINT ( 'NONE',  ( -12.25000000000000000, -0.2500000000000000000, -4.200000000000000178 ) ) ;
#152 = CALENDAR_DATE ( 2023, 20, 12 ) ;
#153 = PERSON_AND_ORGANIZATION_ROLE ( 'creator' ) ;
#154 = VECTOR ( 'NONE', #109, 39.37007874015748143 ) ;
#155 = PERSON_AND_ORGANIZATION ( #167, #230 ) ;
#156 = ORIENTED_EDGE ( 'NONE', *, *, #179, .F. ) ;
#157 = EDGE_LOOP ( 'NONE', ( #103, #213, #163, #49 ) ) ;
#158 = LINE ( 'NONE', #35, #124 ) ;
#159 = FACE_OUTER_BOUND ( 'NONE', #137, .T. ) ;
#160 = CC_DESIGN_APPROVAL ( #122, ( #238 ) ) ;
#161 = PLANE ( 'NONE',  #187 ) ;
#162 = DIRECTION ( 'NONE',  ( -0.000000000000000000, 1.000000000000000000, 0.000000000000000000 ) ) ;
#163 = ORIENTED_EDGE ( 'NONE', *, *, #100, .F. ) ;
#164 = APPROVAL ( #96, 'UNSPECIFIED' ) ;
#165 = LINE ( 'NONE', #134, #141 ) ;
#166 =( CONVERSION_BASED_UNIT ( 'INCH', #224 ) LENGTH_UNIT ( ) NAMED_UNIT ( #91 ) );
#167 = PERSON ( 'UNSPECIFIED', 'UNSPECIFIED', 'UNSPECIFIED', ('UNSPECIFIED'), ('UNSPECIFIED'), ('UNSPECIFIED') ) ;
#168 = LINE ( 'NONE', #151, #234 ) ;
#169 = PERSON_AND_ORGANIZATION_ROLE ( 'creator' ) ;
#170 = APPROVAL_ROLE ( '' ) ;
#171 = AXIS2_PLACEMENT_3D ( 'NONE', #57, #203, #105 ) ;
#172 = EDGE_CURVE ( 'NONE', #139, #189, #158, .T. ) ;
#173 = VECTOR ( 'NONE', #56, 39.37007874015748143 ) ;
#174 = VERTEX_POINT ( 'NONE', #233 ) ;
#175 = CARTESIAN_POINT ( 'NONE',  ( 12.25000000000000000, 0.000000000000000000, -4.200000000000000178 ) ) ;
#176 = DIRECTION ( 'NONE',  ( -5.709004786759599119E-17, 0.000000000000000000, 1.000000000000000000 ) ) ;
#177 = DIRECTION ( 'NONE',  ( 1.000000000000000000, 0.000000000000000000, 0.000000000000000000 ) ) ;
#178 = CARTESIAN_POINT ( 'NONE',  ( 6.025587226769211945E-16, 0.000000000000000000, 0.000000000000000000 ) ) ;
#179 = EDGE_CURVE ( 'NONE', #88, #174, #114, .T. ) ;
#180 = CARTESIAN_POINT ( 'NONE',  ( -12.25000000000000000, 0.000000000000000000, 4.200000000000000178 ) ) ;
#181 = DATE_TIME_ROLE ( 'creation_date' ) ;
#182 = ORIENTED_EDGE ( 'NONE', *, *, #25, .F. ) ;
#183 = DIRECTION ( 'NONE',  ( 1.000000000000000000, 0.000000000000000000, 0.000000000000000000 ) ) ;
#184 = DIRECTION ( 'NONE',  ( -1.000000000000000000, 0.000000000000000000, 0.000000000000000000 ) ) ;
#185 = DESIGN_CONTEXT ( 'detailed design', #231, 'design' ) ;
#186 = SECURITY_CLASSIFICATION_LEVEL ( 'unclassified' ) ;
#187 = AXIS2_PLACEMENT_3D ( 'NONE', #143, #53, #200 ) ;
#188 = CARTESIAN_POINT ( 'NONE',  ( -12.25000000000000000, 0.000000000000000000, -4.200000000000000178 ) ) ;
#189 = VERTEX_POINT ( 'NONE', #148 ) ;
#190 = CARTESIAN_POINT ( 'NONE',  ( -12.25000000000000000, -0.2500000000000000000, 4.200000000000000178 ) ) ;
#191 = CC_DESIGN_DATE_AND_TIME_ASSIGNMENT ( #129, #209, ( #193 ) ) ;
#192 = ORIENTED_EDGE ( 'NONE', *, *, #142, .F. ) ;
#193 = SECURITY_CLASSIFICATION ( '', '', #186 ) ;
#194 = ADVANCED_FACE ( 'NONE', ( #43 ), #77, .T. ) ;
#195 = ORIENTED_EDGE ( 'NONE', *, *, #102, .T. ) ;
#196 = APPROVAL ( #42, 'UNSPECIFIED' ) ;
#197 = VERTEX_POINT ( 'NONE', #62 ) ;
#198 = DIRECTION ( 'NONE',  ( 0.000000000000000000, 0.000000000000000000, -1.000000000000000000 ) ) ;
#199 = EDGE_LOOP ( 'NONE', ( #9, #118, #93, #195 ) ) ;
#200 = DIRECTION ( 'NONE',  ( 1.000000000000000000, 0.000000000000000000, -5.709004786759599119E-17 ) ) ;
#201 = LOCAL_TIME ( 14, 45, 22.00000000000000000, #132 ) ;
#202 = EDGE_LOOP ( 'NONE', ( #156, #212, #182, #192 ) ) ;
#203 = DIRECTION ( 'NONE',  ( 1.000000000000000000, 0.000000000000000000, -1.665126396138219799E-16 ) ) ;
#204 = COORDINATED_UNIVERSAL_TIME_OFFSET ( 5, 0, .BEHIND. ) ;
#205 =( GEOMETRIC_REPRESENTATION_CONTEXT ( 3 ) GLOBAL_UNCERTAINTY_ASSIGNED_CONTEXT ( ( #33 ) ) GLOBAL_UNIT_ASSIGNED_CONTEXT ( ( #166, #81, #223 ) ) REPRESENTATION_CONTEXT ( 'NONE', 'WORKASPACE' ) );
#206 = LINE ( 'NONE', #188, #26 ) ;
#207 = EDGE_CURVE ( 'NONE', #189, #88, #168, .T. ) ;
#208 = APPROVAL_STATUS ( 'not_yet_approved' ) ;
#209 = DATE_TIME_ROLE ( 'classification_date' ) ;
#210 = SHAPE_DEFINITION_REPRESENTATION ( #51, #64 ) ;
#211 = ORIENTED_EDGE ( 'NONE', *, *, #217, .T. ) ;
#212 = ORIENTED_EDGE ( 'NONE', *, *, #207, .F. ) ;
#213 = ORIENTED_EDGE ( 'NONE', *, *, #172, .F. ) ;
#214 = CC_DESIGN_SECURITY_CLASSIFICATION ( #193, ( #73 ) ) ;
#215 = DIRECTION ( 'NONE',  ( -1.000000000000000000, 0.000000000000000000, 0.000000000000000000 ) ) ;
#216 = CARTESIAN_POINT ( 'NONE',  ( 12.25000000000000000, 0.000000000000000000, 4.200000000000000178 ) ) ;
#217 = EDGE_CURVE ( 'NONE', #89, #88, #206, .T. ) ;
#218 = CARTESIAN_POINT ( 'NONE',  ( -12.25000000000000000, 0.000000000000000000, 4.200000000000000178 ) ) ;
#219 = CC_DESIGN_PERSON_AND_ORGANIZATION_ASSIGNMENT ( #95, #1, ( #75 ) ) ;
#220 = CARTESIAN_POINT ( 'NONE',  ( 6.025587226769211945E-16, 0.000000000000000000, 4.200000000000000178 ) ) ;
#221 = APPROVAL_PERSON_ORGANIZATION ( #111, #122, #44 ) ;
#222 = FACE_OUTER_BOUND ( 'NONE', #199, .T. ) ;
#223 =( NAMED_UNIT ( * ) SI_UNIT ( $, .STERADIAN. ) SOLID_ANGLE_UNIT ( ) );
#224 = LENGTH_MEASURE_WITH_UNIT ( LENGTH_MEASURE( 0.02539999999999999897 ), #226 );
#225 = APPROVAL_PERSON_ORGANIZATION ( #46, #196, #115 ) ;
#226 =( LENGTH_UNIT ( ) NAMED_UNIT ( * ) SI_UNIT ( $, .METRE. ) );
#227 = CALENDAR_DATE ( 2023, 20, 12 ) ;
#228 = CC_DESIGN_PERSON_AND_ORGANIZATION_ASSIGNMENT ( #3, #153, ( #238 ) ) ;
#229 = DIRECTION ( 'NONE',  ( 0.000000000000000000, 0.000000000000000000, 1.000000000000000000 ) ) ;
#230 = ORGANIZATION ( 'UNSPECIFIED', 'UNSPECIFIED', '' ) ;
#231 = APPLICATION_CONTEXT ( 'configuration controlled 3d designs of mechanical parts and assemblies' ) ;
#232 = ORIENTED_EDGE ( 'NONE', *, *, #30, .T. ) ;
#233 = CARTESIAN_POINT ( 'NONE',  ( -12.25000000000000000, -0.2500000000000000000, 4.200000000000000178 ) ) ;
#234 = VECTOR ( 'NONE', #113, 39.37007874015748143 ) ;
#235 = CARTESIAN_POINT ( 'NONE',  ( -12.25000000000000000, 0.000000000000000000, -4.200000000000000178 ) ) ;
#236 = EDGE_CURVE ( 'NONE', #89, #7, #165, .T. ) ;
#237 = CARTESIAN_POINT ( 'NONE',  ( 12.25000000000000000, 0.000000000000000000, 0.000000000000000000 ) ) ;
#238 = PRODUCT_DEFINITION ( 'UNKNOWN', '', #73, #185 ) ;
#239 = CARTESIAN_POINT ( 'NONE',  ( 12.25000000000000000, 0.000000000000000000, 4.200000000000000178 ) ) ;
#240 = LINE ( 'NONE', #220, #10 ) ;
ENDSEC;
END-ISO-10303-21;
