ISO-10303-21;
HEADER;
FILE_DESCRIPTION (( 'STEP AP203' ),
    '1' );
FILE_NAME ('WD16-10_Default.step',
    '2023-12-20T19:45:16',
    ( 'Windows User' ),
    ( 'AUTOMATION DIRECT' ),
    'SwSTEP 2.0',
    'SolidWorks 2023',
    '' );
FILE_SCHEMA (( 'CONFIG_CONTROL_DESIGN' ));
ENDSEC;

DATA;
#1 = CARTESIAN_POINT ( 'NONE',  ( 8.224999999999999645, 0.1900000000000000300, -3.250000000000000000 ) ) ;
#2 = VERTEX_POINT ( 'NONE', #131 ) ;
#3 = VERTEX_POINT ( 'NONE', #1 ) ;
#4 = CC_DESIGN_PERSON_AND_ORGANIZATION_ASSIGNMENT ( #217, #221, ( #28 ) ) ;
#5 = VERTEX_POINT ( 'NONE', #152 ) ;
#6 = ORIENTED_EDGE ( 'NONE', *, *, #180, .T. ) ;
#7 = DIRECTION ( 'NONE',  ( 0.000000000000000000, 0.000000000000000000, 1.000000000000000000 ) ) ;
#8 = CARTESIAN_POINT ( 'NONE',  ( -3.573127643387290900E-16, 0.000000000000000000, 0.000000000000000000 ) ) ;
#9 = AXIS2_PLACEMENT_3D ( 'NONE', #191, #108, #192 ) ;
#10 = PLANE ( 'NONE',  #235 ) ;
#11 = COORDINATED_UNIVERSAL_TIME_OFFSET ( 5, 0, .BEHIND. ) ;
#12 = VECTOR ( 'NONE', #173, 39.37007874015748143 ) ;
#13 = PERSON_AND_ORGANIZATION_ROLE ( 'classification_officer' ) ;
#14 = PERSON_AND_ORGANIZATION ( #80, #146 ) ;
#15 = PRODUCT_DEFINITION_SHAPE ( 'NONE', 'NONE',  #237 ) ;
#16 = CARTESIAN_POINT ( 'NONE',  ( 8.224999999999999645, 0.000000000000000000, 0.000000000000000000 ) ) ;
#17 = DIRECTION ( 'NONE',  ( 1.000000000000000000, -0.000000000000000000, -4.251386543331619853E-17 ) ) ;
#18 = LINE ( 'NONE', #83, #133 ) ;
#19 = CC_DESIGN_PERSON_AND_ORGANIZATION_ASSIGNMENT ( #14, #182, ( #28 ) ) ;
#20 = CARTESIAN_POINT ( 'NONE',  ( -8.224999999999999645, 0.1900000000000000300, -3.250000000000000000 ) ) ;
#21 = ORIENTED_EDGE ( 'NONE', *, *, #77, .F. ) ;
#22 = PLANE ( 'NONE',  #93 ) ;
#23 =( GEOMETRIC_REPRESENTATION_CONTEXT ( 3 ) GLOBAL_UNCERTAINTY_ASSIGNED_CONTEXT ( ( #215 ) ) GLOBAL_UNIT_ASSIGNED_CONTEXT ( ( #159, #232, #177 ) ) REPRESENTATION_CONTEXT ( 'NONE', 'WORKASPACE' ) );
#24 = DIRECTION ( 'NONE',  ( -1.000000000000000000, 0.000000000000000000, 0.000000000000000000 ) ) ;
#25 = LINE ( 'NONE', #230, #12 ) ;
#26 = CARTESIAN_POINT ( 'NONE',  ( -8.224999999999999645, 0.1900000000000000300, 3.250000000000000000 ) ) ;
#27 = APPROVAL ( #126, 'UNSPECIFIED' ) ;
#28 = PRODUCT_DEFINITION_FORMATION_WITH_SPECIFIED_SOURCE ( 'ANY', '', #149, .NOT_KNOWN. ) ;
#29 = DIRECTION ( 'NONE',  ( -1.000000000000000000, 0.000000000000000000, 4.251386543331619853E-17 ) ) ;
#30 = ADVANCED_FACE ( 'NONE', ( #57 ), #223, .T. ) ;
#31 = APPROVAL ( #50, 'UNSPECIFIED' ) ;
#32 = DATE_AND_TIME ( #128, #33 ) ;
#33 = LOCAL_TIME ( 14, 45, 16.00000000000000000, #52 ) ;
#34 = DIRECTION ( 'NONE',  ( 0.000000000000000000, 0.000000000000000000, 1.000000000000000000 ) ) ;
#35 = DATE_TIME_ROLE ( 'classification_date' ) ;
#36 = PERSON_AND_ORGANIZATION ( #80, #146 ) ;
#37 = AXIS2_PLACEMENT_3D ( 'NONE', #94, #34, #71 ) ;
#38 = EDGE_LOOP ( 'NONE', ( #167, #118, #61, #204 ) ) ;
#39 = CARTESIAN_POINT ( 'NONE',  ( -8.224999999999999645, 0.1900000000000000300, 3.250000000000000000 ) ) ;
#40 = DIRECTION ( 'NONE',  ( -1.000000000000000000, 0.000000000000000000, 0.000000000000000000 ) ) ;
#41 = EDGE_LOOP ( 'NONE', ( #164, #101, #96, #171 ) ) ;
#42 = VECTOR ( 'NONE', #79, 39.37007874015748143 ) ;
#43 = EDGE_LOOP ( 'NONE', ( #100, #99, #53, #129 ) ) ;
#44 = EDGE_CURVE ( 'NONE', #5, #225, #186, .T. ) ;
#45 = DIRECTION ( 'NONE',  ( 0.000000000000000000, 1.000000000000000000, 0.000000000000000000 ) ) ;
#46 = APPROVAL_PERSON_ORGANIZATION ( #127, #184, #49 ) ;
#47 = FACE_OUTER_BOUND ( 'NONE', #85, .T. ) ;
#48 = CC_DESIGN_DATE_AND_TIME_ASSIGNMENT ( #141, #144, ( #237 ) ) ;
#49 = APPROVAL_ROLE ( '' ) ;
#50 = APPROVAL_STATUS ( 'not_yet_approved' ) ;
#51 = COORDINATED_UNIVERSAL_TIME_OFFSET ( 5, 0, .BEHIND. ) ;
#52 = COORDINATED_UNIVERSAL_TIME_OFFSET ( 5, 0, .BEHIND. ) ;
#53 = ORIENTED_EDGE ( 'NONE', *, *, #54, .T. ) ;
#54 = EDGE_CURVE ( 'NONE', #225, #56, #116, .T. ) ;
#55 = VECTOR ( 'NONE', #211, 39.37007874015748143 ) ;
#56 = VERTEX_POINT ( 'NONE', #150 ) ;
#57 = FACE_OUTER_BOUND ( 'NONE', #38, .T. ) ;
#58 = VERTEX_POINT ( 'NONE', #20 ) ;
#59 = EDGE_CURVE ( 'NONE', #58, #3, #130, .T. ) ;
#60 = VECTOR ( 'NONE', #7, 39.37007874015748143 ) ;
#61 = ORIENTED_EDGE ( 'NONE', *, *, #233, .F. ) ;
#62 = PLANE ( 'NONE',  #121 ) ;
#63 = DIRECTION ( 'NONE',  ( -0.000000000000000000, -0.000000000000000000, 1.000000000000000000 ) ) ;
#64 = EDGE_CURVE ( 'NONE', #206, #218, #169, .T. ) ;
#65 = DESIGN_CONTEXT ( 'detailed design', #69, 'design' ) ;
#66 = CARTESIAN_POINT ( 'NONE',  ( 8.224999999999999645, 0.000000000000000000, 3.250000000000000000 ) ) ;
#67 = PRODUCT_RELATED_PRODUCT_CATEGORY ( 'detail', '', ( #149 ) ) ;
#68 = FACE_OUTER_BOUND ( 'NONE', #43, .T. ) ;
#69 = APPLICATION_CONTEXT ( 'configuration controlled 3d designs of mechanical parts and assemblies' ) ;
#70 = DIRECTION ( 'NONE',  ( 0.000000000000000000, 0.000000000000000000, -1.000000000000000000 ) ) ;
#71 = DIRECTION ( 'NONE',  ( 1.000000000000000000, 0.000000000000000000, 0.000000000000000000 ) ) ;
#72 = LOCAL_TIME ( 14, 45, 16.00000000000000000, #51 ) ;
#73 = MECHANICAL_CONTEXT ( 'NONE', #208, 'mechanical' ) ;
#74 = CALENDAR_DATE ( 2023, 20, 12 ) ;
#75 = VECTOR ( 'NONE', #157, 39.37007874015748143 ) ;
#76 = APPROVAL_ROLE ( '' ) ;
#77 = EDGE_CURVE ( 'NONE', #2, #5, #18, .T. ) ;
#78 = DIMENSIONAL_EXPONENTS ( 1.000000000000000000, 0.000000000000000000, 0.000000000000000000, 0.000000000000000000, 0.000000000000000000, 0.000000000000000000, 0.000000000000000000 ) ;
#79 = DIRECTION ( 'NONE',  ( -1.000000000000000000, 0.000000000000000000, 0.000000000000000000 ) ) ;
#80 = PERSON ( 'UNSPECIFIED', 'UNSPECIFIED', 'UNSPECIFIED', ('UNSPECIFIED'), ('UNSPECIFIED'), ('UNSPECIFIED') ) ;
#81 = CLOSED_SHELL ( 'NONE', ( #195, #147, #213, #119, #143, #30 ) ) ;
#82 = ORIENTED_EDGE ( 'NONE', *, *, #84, .T. ) ;
#83 = CARTESIAN_POINT ( 'NONE',  ( -3.573127643387290900E-16, 0.000000000000000000, 3.250000000000000000 ) ) ;
#84 = EDGE_CURVE ( 'NONE', #218, #58, #132, .T. ) ;
#85 = EDGE_LOOP ( 'NONE', ( #135, #166, #202, #155 ) ) ;
#86 = ORIENTED_EDGE ( 'NONE', *, *, #139, .T. ) ;
#87 = CARTESIAN_POINT ( 'NONE',  ( 8.224999999999999645, 0.1900000000000000300, 3.250000000000000000 ) ) ;
#88 = LENGTH_MEASURE_WITH_UNIT ( LENGTH_MEASURE( 0.02539999999999999897 ), #122 );
#89 = CC_DESIGN_PERSON_AND_ORGANIZATION_ASSIGNMENT ( #239, #199, ( #149 ) ) ;
#90 = PLANE ( 'NONE',  #9 ) ;
#91 = CARTESIAN_POINT ( 'NONE',  ( -8.224999999999999645, 0.000000000000000000, 0.000000000000000000 ) ) ;
#92 = COORDINATED_UNIVERSAL_TIME_OFFSET ( 5, 0, .BEHIND. ) ;
#93 = AXIS2_PLACEMENT_3D ( 'NONE', #138, #120, #105 ) ;
#94 = CARTESIAN_POINT ( 'NONE',  ( 0.000000000000000000, 0.000000000000000000, 0.000000000000000000 ) ) ;
#95 = APPROVAL_ROLE ( '' ) ;
#96 = ORIENTED_EDGE ( 'NONE', *, *, #77, .T. ) ;
#97 = AXIS2_PLACEMENT_3D ( 'NONE', #8, #45, #24 ) ;
#98 = CARTESIAN_POINT ( 'NONE',  ( -3.573127643387290900E-16, 0.000000000000000000, -3.250000000000000000 ) ) ;
#99 = ORIENTED_EDGE ( 'NONE', *, *, #112, .F. ) ;
#100 = ORIENTED_EDGE ( 'NONE', *, *, #59, .T. ) ;
#101 = ORIENTED_EDGE ( 'NONE', *, *, #229, .T. ) ;
#102 = CC_DESIGN_PERSON_AND_ORGANIZATION_ASSIGNMENT ( #111, #234, ( #237 ) ) ;
#103 = EDGE_LOOP ( 'NONE', ( #21, #156, #201, #222 ) ) ;
#104 = AXIS2_PLACEMENT_3D ( 'NONE', #203, #113, #40 ) ;
#105 = DIRECTION ( 'NONE',  ( 2.151855650393999901E-16, 0.000000000000000000, 1.000000000000000000 ) ) ;
#106 = CC_DESIGN_DATE_AND_TIME_ASSIGNMENT ( #32, #35, ( #205 ) ) ;
#107 = PLANE ( 'NONE',  #97 ) ;
#108 = DIRECTION ( 'NONE',  ( -8.502773086663239707E-17, 0.000000000000000000, 1.000000000000000000 ) ) ;
#109 = LINE ( 'NONE', #87, #220 ) ;
#110 = PERSON_AND_ORGANIZATION ( #80, #146 ) ;
#111 = PERSON_AND_ORGANIZATION ( #80, #146 ) ;
#112 = EDGE_CURVE ( 'NONE', #225, #3, #170, .T. ) ;
#113 = DIRECTION ( 'NONE',  ( 0.000000000000000000, 1.000000000000000000, 0.000000000000000000 ) ) ;
#114 = CARTESIAN_POINT ( 'NONE',  ( 8.224999999999999645, 0.1900000000000000300, -3.250000000000000000 ) ) ;
#115 = EDGE_CURVE ( 'NONE', #206, #5, #123, .T. ) ;
#116 = LINE ( 'NONE', #98, #42 ) ;
#117 = CARTESIAN_POINT ( 'NONE',  ( -8.224999999999999645, 0.1900000000000000300, -3.250000000000000000 ) ) ;
#118 = ORIENTED_EDGE ( 'NONE', *, *, #64, .F. ) ;
#119 = ADVANCED_FACE ( 'NONE', ( #137 ), #22, .T. ) ;
#120 = DIRECTION ( 'NONE',  ( -1.000000000000000000, 0.000000000000000000, 2.151855650393999901E-16 ) ) ;
#121 = AXIS2_PLACEMENT_3D ( 'NONE', #140, #174, #70 ) ;
#122 =( LENGTH_UNIT ( ) NAMED_UNIT ( * ) SI_UNIT ( $, .METRE. ) );
#123 = LINE ( 'NONE', #66, #55 ) ;
#124 = DIRECTION ( 'NONE',  ( 0.000000000000000000, 1.000000000000000000, 0.000000000000000000 ) ) ;
#125 = COORDINATED_UNIVERSAL_TIME_OFFSET ( 5, 0, .BEHIND. ) ;
#126 = APPROVAL_STATUS ( 'not_yet_approved' ) ;
#127 = PERSON_AND_ORGANIZATION ( #80, #146 ) ;
#128 = CALENDAR_DATE ( 2023, 20, 12 ) ;
#129 = ORIENTED_EDGE ( 'NONE', *, *, #180, .F. ) ;
#130 = LINE ( 'NONE', #114, #198 ) ;
#131 = CARTESIAN_POINT ( 'NONE',  ( -8.224999999999999645, 0.000000000000000000, 3.250000000000000000 ) ) ;
#132 = LINE ( 'NONE', #117, #165 ) ;
#133 = VECTOR ( 'NONE', #154, 39.37007874015748143 ) ;
#134 = LOCAL_TIME ( 14, 45, 16.00000000000000000, #92 ) ;
#135 = ORIENTED_EDGE ( 'NONE', *, *, #233, .T. ) ;
#136 = CARTESIAN_POINT ( 'NONE',  ( 8.224999999999999645, 0.000000000000000000, -3.250000000000000000 ) ) ;
#137 = FACE_OUTER_BOUND ( 'NONE', #188, .T. ) ;
#138 = CARTESIAN_POINT ( 'NONE',  ( -8.224999999999999645, 0.000000000000000000, -3.250000000000000000 ) ) ;
#139 = EDGE_CURVE ( 'NONE', #56, #2, #179, .T. ) ;
#140 = CARTESIAN_POINT ( 'NONE',  ( 8.224999999999999645, 0.000000000000000000, 3.250000000000000000 ) ) ;
#141 = DATE_AND_TIME ( #163, #176 ) ;
#142 = VECTOR ( 'NONE', #224, 39.37007874015748143 ) ;
#143 = ADVANCED_FACE ( 'NONE', ( #68 ), #10, .T. ) ;
#144 = DATE_TIME_ROLE ( 'creation_date' ) ;
#145 = APPROVAL_DATE_TIME ( #236, #27 ) ;
#146 = ORGANIZATION ( 'UNSPECIFIED', 'UNSPECIFIED', '' ) ;
#147 = ADVANCED_FACE ( 'NONE', ( #47 ), #62, .T. ) ;
#148 = APPROVAL_DATE_TIME ( #160, #31 ) ;
#149 = PRODUCT ( 'WD16-10_Default', 'WD16-10_Default', '', ( #73 ) ) ;
#150 = CARTESIAN_POINT ( 'NONE',  ( -8.224999999999999645, 0.000000000000000000, -3.250000000000000000 ) ) ;
#151 = CC_DESIGN_APPROVAL ( #31, ( #237 ) ) ;
#152 = CARTESIAN_POINT ( 'NONE',  ( 8.224999999999999645, 0.000000000000000000, 3.250000000000000000 ) ) ;
#153 = CC_DESIGN_PERSON_AND_ORGANIZATION_ASSIGNMENT ( #110, #13, ( #205 ) ) ;
#154 = DIRECTION ( 'NONE',  ( 1.000000000000000000, -0.000000000000000000, -0.000000000000000000 ) ) ;
#155 = ORIENTED_EDGE ( 'NONE', *, *, #112, .T. ) ;
#156 = ORIENTED_EDGE ( 'NONE', *, *, #139, .F. ) ;
#157 = DIRECTION ( 'NONE',  ( -0.000000000000000000, -1.000000000000000000, -0.000000000000000000 ) ) ;
#158 = CARTESIAN_POINT ( 'NONE',  ( 8.224999999999999645, 0.000000000000000000, -3.250000000000000000 ) ) ;
#159 =( CONVERSION_BASED_UNIT ( 'INCH', #88 ) LENGTH_UNIT ( ) NAMED_UNIT ( #78 ) );
#160 = DATE_AND_TIME ( #74, #134 ) ;
#161 = DATE_AND_TIME ( #196, #181 ) ;
#162 = VECTOR ( 'NONE', #124, 39.37007874015748143 ) ;
#163 = CALENDAR_DATE ( 2023, 20, 12 ) ;
#164 = ORIENTED_EDGE ( 'NONE', *, *, #64, .T. ) ;
#165 = VECTOR ( 'NONE', #189, 39.37007874015748143 ) ;
#166 = ORIENTED_EDGE ( 'NONE', *, *, #115, .T. ) ;
#167 = ORIENTED_EDGE ( 'NONE', *, *, #84, .F. ) ;
#168 = CC_DESIGN_APPROVAL ( #184, ( #205 ) ) ;
#169 = LINE ( 'NONE', #39, #240 ) ;
#170 = LINE ( 'NONE', #136, #162 ) ;
#171 = ORIENTED_EDGE ( 'NONE', *, *, #115, .F. ) ;
#172 = APPROVAL_PERSON_ORGANIZATION ( #219, #27, #76 ) ;
#173 = DIRECTION ( 'NONE',  ( -0.000000000000000000, -1.000000000000000000, -0.000000000000000000 ) ) ;
#174 = DIRECTION ( 'NONE',  ( 1.000000000000000000, 0.000000000000000000, 0.000000000000000000 ) ) ;
#175 = CARTESIAN_POINT ( 'NONE',  ( 8.224999999999999645, 0.1900000000000000300, 3.250000000000000000 ) ) ;
#176 = LOCAL_TIME ( 14, 45, 16.00000000000000000, #11 ) ;
#177 =( NAMED_UNIT ( * ) SI_UNIT ( $, .STERADIAN. ) SOLID_ANGLE_UNIT ( ) );
#178 = MANIFOLD_SOLID_BREP ( 'Imported1', #81 ) ;
#179 = LINE ( 'NONE', #91, #60 ) ;
#180 = EDGE_CURVE ( 'NONE', #58, #56, #207, .T. ) ;
#181 = LOCAL_TIME ( 14, 45, 16.00000000000000000, #125 ) ;
#182 = PERSON_AND_ORGANIZATION_ROLE ( 'design_supplier' ) ;
#183 = SHAPE_DEFINITION_REPRESENTATION ( #15, #210 ) ;
#184 = APPROVAL ( #238, 'UNSPECIFIED' ) ;
#185 = CALENDAR_DATE ( 2023, 20, 12 ) ;
#186 = LINE ( 'NONE', #16, #142 ) ;
#187 = DIRECTION ( 'NONE',  ( -1.000000000000000000, -0.000000000000000000, -8.502773086663239707E-17 ) ) ;
#188 = EDGE_LOOP ( 'NONE', ( #82, #6, #86, #190 ) ) ;
#189 = DIRECTION ( 'NONE',  ( -2.151855650393999901E-16, -0.000000000000000000, -1.000000000000000000 ) ) ;
#190 = ORIENTED_EDGE ( 'NONE', *, *, #229, .F. ) ;
#191 = CARTESIAN_POINT ( 'NONE',  ( -8.224999999999999645, 0.000000000000000000, 3.250000000000000000 ) ) ;
#192 = DIRECTION ( 'NONE',  ( 1.000000000000000000, 0.000000000000000000, 8.502773086663239707E-17 ) ) ;
#193 = CARTESIAN_POINT ( 'NONE',  ( -8.224999999999999645, 0.000000000000000000, -3.250000000000000000 ) ) ;
#194 = APPLICATION_PROTOCOL_DEFINITION ( 'international standard', 'config_control_design', 1994, #208 ) ;
#195 = ADVANCED_FACE ( 'NONE', ( #228 ), #107, .F. ) ;
#196 = CALENDAR_DATE ( 2023, 20, 12 ) ;
#197 = APPROVAL_DATE_TIME ( #161, #184 ) ;
#198 = VECTOR ( 'NONE', #17, 39.37007874015748143 ) ;
#199 = PERSON_AND_ORGANIZATION_ROLE ( 'design_owner' ) ;
#200 = APPLICATION_PROTOCOL_DEFINITION ( 'international standard', 'config_control_design', 1994, #69 ) ;
#201 = ORIENTED_EDGE ( 'NONE', *, *, #54, .F. ) ;
#202 = ORIENTED_EDGE ( 'NONE', *, *, #44, .T. ) ;
#203 = CARTESIAN_POINT ( 'NONE',  ( 0.000000000000000000, 0.1900000000000000300, 0.000000000000000000 ) ) ;
#204 = ORIENTED_EDGE ( 'NONE', *, *, #59, .F. ) ;
#205 = SECURITY_CLASSIFICATION ( '', '', #216 ) ;
#206 = VERTEX_POINT ( 'NONE', #175 ) ;
#207 = LINE ( 'NONE', #193, #75 ) ;
#208 = APPLICATION_CONTEXT ( 'configuration controlled 3d designs of mechanical parts and assemblies' ) ;
#209 = DIRECTION ( 'NONE',  ( -4.251386543331619853E-17, 0.000000000000000000, -1.000000000000000000 ) ) ;
#210 = ADVANCED_BREP_SHAPE_REPRESENTATION ( 'WD16-10_Default', ( #178, #37 ), #23 ) ;
#211 = DIRECTION ( 'NONE',  ( -0.000000000000000000, -1.000000000000000000, -0.000000000000000000 ) ) ;
#212 = FACE_OUTER_BOUND ( 'NONE', #41, .T. ) ;
#213 = ADVANCED_FACE ( 'NONE', ( #212 ), #90, .T. ) ;
#214 = CC_DESIGN_SECURITY_CLASSIFICATION ( #205, ( #28 ) ) ;
#215 = UNCERTAINTY_MEASURE_WITH_UNIT (LENGTH_MEASURE( 1.000000000000000082E-05 ), #159, 'distance_accuracy_value', 'NONE');
#216 = SECURITY_CLASSIFICATION_LEVEL ( 'unclassified' ) ;
#217 = PERSON_AND_ORGANIZATION ( #80, #146 ) ;
#218 = VERTEX_POINT ( 'NONE', #26 ) ;
#219 = PERSON_AND_ORGANIZATION ( #80, #146 ) ;
#220 = VECTOR ( 'NONE', #63, 39.37007874015748143 ) ;
#221 = PERSON_AND_ORGANIZATION_ROLE ( 'creator' ) ;
#222 = ORIENTED_EDGE ( 'NONE', *, *, #44, .F. ) ;
#223 = PLANE ( 'NONE',  #104 ) ;
#224 = DIRECTION ( 'NONE',  ( -0.000000000000000000, -0.000000000000000000, -1.000000000000000000 ) ) ;
#225 = VERTEX_POINT ( 'NONE', #158 ) ;
#226 = CC_DESIGN_APPROVAL ( #27, ( #28 ) ) ;
#227 = CARTESIAN_POINT ( 'NONE',  ( 8.224999999999999645, 0.000000000000000000, -3.250000000000000000 ) ) ;
#228 = FACE_OUTER_BOUND ( 'NONE', #103, .T. ) ;
#229 = EDGE_CURVE ( 'NONE', #218, #2, #25, .T. ) ;
#230 = CARTESIAN_POINT ( 'NONE',  ( -8.224999999999999645, 0.000000000000000000, 3.250000000000000000 ) ) ;
#231 = APPROVAL_PERSON_ORGANIZATION ( #36, #31, #95 ) ;
#232 =( NAMED_UNIT ( * ) PLANE_ANGLE_UNIT ( ) SI_UNIT ( $, .RADIAN. ) );
#233 = EDGE_CURVE ( 'NONE', #3, #206, #109, .T. ) ;
#234 = PERSON_AND_ORGANIZATION_ROLE ( 'creator' ) ;
#235 = AXIS2_PLACEMENT_3D ( 'NONE', #227, #209, #29 ) ;
#236 = DATE_AND_TIME ( #185, #72 ) ;
#237 = PRODUCT_DEFINITION ( 'UNKNOWN', '', #28, #65 ) ;
#238 = APPROVAL_STATUS ( 'not_yet_approved' ) ;
#239 = PERSON_AND_ORGANIZATION ( #80, #146 ) ;
#240 = VECTOR ( 'NONE', #187, 39.37007874015748143 ) ;
ENDSEC;
END-ISO-10303-21;
