ISO-10303-21;
HEADER;
FILE_DESCRIPTION (( 'STEP AP203' ),
    '1' );
FILE_NAME ('WD10-6_Default.step',
    '2023-12-20T19:45:08',
    ( 'Windows User' ),
    ( 'AUTOMATION DIRECT' ),
    'SwSTEP 2.0',
    'SolidWorks 2023',
    '' );
FILE_SCHEMA (( 'CONFIG_CONTROL_DESIGN' ));
ENDSEC;

DATA;
#1 = CARTESIAN_POINT ( 'NONE',  ( 2.217470019694710007E-16, 0.000000000000000000, -5.250000000000000000 ) ) ;
#2 = EDGE_CURVE ( 'NONE', #96, #73, #220, .T. ) ;
#3 = ADVANCED_FACE ( 'NONE', ( #203 ), #15, .F. ) ;
#4 = CALENDAR_DATE ( 2023, 20, 12 ) ;
#5 = AXIS2_PLACEMENT_3D ( 'NONE', #122, #81, #64 ) ;
#6 = EDGE_LOOP ( 'NONE', ( #136, #22, #195, #235 ) ) ;
#7 = ORIENTED_EDGE ( 'NONE', *, *, #57, .T. ) ;
#8 = DIRECTION ( 'NONE',  ( 3.178877665354779959E-16, -0.000000000000000000, 1.000000000000000000 ) ) ;
#9 = LOCAL_TIME ( 14, 45, 8.000000000000000000, #223 ) ;
#10 = ORIENTED_EDGE ( 'NONE', *, *, #192, .F. ) ;
#11 = CARTESIAN_POINT ( 'NONE',  ( 2.200000000000000622, 0.000000000000000000, -5.250000000000000000 ) ) ;
#12 = CARTESIAN_POINT ( 'NONE',  ( 2.200000000000000178, 0.1899999999999999745, 5.250000000000000000 ) ) ;
#13 = VECTOR ( 'NONE', #28, 39.37007874015748143 ) ;
#14 = APPROVAL ( #91, 'UNSPECIFIED' ) ;
#15 = PLANE ( 'NONE',  #108 ) ;
#16 = CARTESIAN_POINT ( 'NONE',  ( 2.200000000000000178, 0.000000000000000000, -1.133404363816459993E-15 ) ) ;
#17 = CALENDAR_DATE ( 2023, 20, 12 ) ;
#18 = EDGE_CURVE ( 'NONE', #133, #48, #82, .T. ) ;
#19 = APPLICATION_PROTOCOL_DEFINITION ( 'international standard', 'config_control_design', 1994, #145 ) ;
#20 = VECTOR ( 'NONE', #163, 39.37007874015748143 ) ;
#21 = COORDINATED_UNIVERSAL_TIME_OFFSET ( 5, 0, .BEHIND. ) ;
#22 = ORIENTED_EDGE ( 'NONE', *, *, #18, .T. ) ;
#23 = DATE_AND_TIME ( #4, #29 ) ;
#24 = ORIENTED_EDGE ( 'NONE', *, *, #224, .T. ) ;
#25 = PERSON_AND_ORGANIZATION ( #150, #134 ) ;
#26 =( GEOMETRIC_REPRESENTATION_CONTEXT ( 3 ) GLOBAL_UNCERTAINTY_ASSIGNED_CONTEXT ( ( #46 ) ) GLOBAL_UNIT_ASSIGNED_CONTEXT ( ( #148, #107, #151 ) ) REPRESENTATION_CONTEXT ( 'NONE', 'WORKASPACE' ) );
#27 = ORIENTED_EDGE ( 'NONE', *, *, #208, .F. ) ;
#28 = DIRECTION ( 'NONE',  ( 0.000000000000000000, -0.000000000000000000, 1.000000000000000000 ) ) ;
#29 = LOCAL_TIME ( 14, 45, 8.000000000000000000, #41 ) ;
#30 = LINE ( 'NONE', #100, #20 ) ;
#31 = VECTOR ( 'NONE', #70, 39.37007874015748143 ) ;
#32 = CARTESIAN_POINT ( 'NONE',  ( 2.200000000000000178, 0.000000000000000000, -5.250000000000000000 ) ) ;
#33 = DIRECTION ( 'NONE',  ( 1.000000000000000000, 0.000000000000000000, -3.178877665354779959E-16 ) ) ;
#34 = DIRECTION ( 'NONE',  ( -0.000000000000000000, -1.000000000000000000, -0.000000000000000000 ) ) ;
#35 = VECTOR ( 'NONE', #97, 39.37007874015748143 ) ;
#36 = PERSON_AND_ORGANIZATION_ROLE ( 'design_owner' ) ;
#37 = CARTESIAN_POINT ( 'NONE',  ( 2.200000000000000178, 0.1899999999999999745, -5.250000000000000000 ) ) ;
#38 =( LENGTH_UNIT ( ) NAMED_UNIT ( * ) SI_UNIT ( $, .METRE. ) );
#39 = DIRECTION ( 'NONE',  ( 1.000000000000000000, -0.000000000000000000, 0.000000000000000000 ) ) ;
#40 = LINE ( 'NONE', #227, #218 ) ;
#41 = COORDINATED_UNIVERSAL_TIME_OFFSET ( 5, 0, .BEHIND. ) ;
#42 = ORIENTED_EDGE ( 'NONE', *, *, #237, .F. ) ;
#43 = ORIENTED_EDGE ( 'NONE', *, *, #99, .F. ) ;
#44 = COORDINATED_UNIVERSAL_TIME_OFFSET ( 5, 0, .BEHIND. ) ;
#45 = VERTEX_POINT ( 'NONE', #187 ) ;
#46 = UNCERTAINTY_MEASURE_WITH_UNIT (LENGTH_MEASURE( 1.000000000000000082E-05 ), #148, 'distance_accuracy_value', 'NONE');
#47 = DIRECTION ( 'NONE',  ( 0.000000000000000000, -0.000000000000000000, 1.000000000000000000 ) ) ;
#48 = VERTEX_POINT ( 'NONE', #167 ) ;
#49 = APPROVAL ( #168, 'UNSPECIFIED' ) ;
#50 = CARTESIAN_POINT ( 'NONE',  ( 2.200000000000000178, 0.1899999999999999745, -5.250000000000000000 ) ) ;
#51 = CARTESIAN_POINT ( 'NONE',  ( -2.200000000000000178, 0.1899999999999999745, -5.250000000000000000 ) ) ;
#52 = CARTESIAN_POINT ( 'NONE',  ( 2.200000000000000178, 0.000000000000000000, 5.250000000000000000 ) ) ;
#53 = DATE_AND_TIME ( #240, #9 ) ;
#54 = APPROVAL_DATE_TIME ( #53, #49 ) ;
#55 = APPROVAL_ROLE ( '' ) ;
#56 = CC_DESIGN_PERSON_AND_ORGANIZATION_ASSIGNMENT ( #25, #212, ( #186 ) ) ;
#57 = EDGE_CURVE ( 'NONE', #78, #157, #164, .T. ) ;
#58 = APPROVAL_PERSON_ORGANIZATION ( #172, #49, #55 ) ;
#59 = CC_DESIGN_APPROVAL ( #14, ( #63 ) ) ;
#60 = CC_DESIGN_PERSON_AND_ORGANIZATION_ASSIGNMENT ( #194, #95, ( #186 ) ) ;
#61 = FACE_OUTER_BOUND ( 'NONE', #65, .T. ) ;
#62 = CARTESIAN_POINT ( 'NONE',  ( -2.200000000000000178, 0.000000000000000000, 5.250000000000000000 ) ) ;
#63 = SECURITY_CLASSIFICATION ( '', '', #210 ) ;
#64 = DIRECTION ( 'NONE',  ( 9.990758376829311401E-17, 0.000000000000000000, -1.000000000000000000 ) ) ;
#65 = EDGE_LOOP ( 'NONE', ( #10, #102, #27, #141 ) ) ;
#66 = PERSON_AND_ORGANIZATION ( #150, #134 ) ;
#67 = CC_DESIGN_APPROVAL ( #199, ( #186 ) ) ;
#68 = CARTESIAN_POINT ( 'NONE',  ( 0.000000000000000000, 0.000000000000000000, 0.000000000000000000 ) ) ;
#69 = ADVANCED_FACE ( 'NONE', ( #201 ), #200, .T. ) ;
#70 = DIRECTION ( 'NONE',  ( -1.000000000000000000, -0.000000000000000000, 0.000000000000000000 ) ) ;
#71 = LINE ( 'NONE', #16, #117 ) ;
#72 = DIRECTION ( 'NONE',  ( -0.000000000000000000, -1.000000000000000000, -0.000000000000000000 ) ) ;
#73 = VERTEX_POINT ( 'NONE', #142 ) ;
#74 = ORIENTED_EDGE ( 'NONE', *, *, #237, .T. ) ;
#75 = CC_DESIGN_APPROVAL ( #49, ( #140 ) ) ;
#76 = PERSON_AND_ORGANIZATION ( #150, #134 ) ;
#77 = ORIENTED_EDGE ( 'NONE', *, *, #233, .T. ) ;
#78 = VERTEX_POINT ( 'NONE', #50 ) ;
#79 = AXIS2_PLACEMENT_3D ( 'NONE', #129, #85, #188 ) ;
#80 = EDGE_LOOP ( 'NONE', ( #94, #178, #43, #113 ) ) ;
#81 = DIRECTION ( 'NONE',  ( 1.000000000000000000, -0.000000000000000000, 9.990758376829311401E-17 ) ) ;
#82 = LINE ( 'NONE', #52, #215 ) ;
#83 = PLANE ( 'NONE',  #182 ) ;
#84 = CARTESIAN_POINT ( 'NONE',  ( 2.217470019694710007E-16, 0.000000000000000000, -1.133404363816459993E-15 ) ) ;
#85 = DIRECTION ( 'NONE',  ( -1.000000000000000000, 0.000000000000000000, 9.990758376829300308E-17 ) ) ;
#86 = PERSON_AND_ORGANIZATION ( #150, #134 ) ;
#87 = VECTOR ( 'NONE', #225, 39.37007874015748143 ) ;
#88 = PRODUCT_RELATED_PRODUCT_CATEGORY ( 'detail', '', ( #166 ) ) ;
#89 = DATE_AND_TIME ( #17, #138 ) ;
#90 = VECTOR ( 'NONE', #39, 39.37007874015748143 ) ;
#91 = APPROVAL_STATUS ( 'not_yet_approved' ) ;
#92 = EDGE_LOOP ( 'NONE', ( #165, #74, #24, #214 ) ) ;
#93 = DATE_AND_TIME ( #118, #152 ) ;
#94 = ORIENTED_EDGE ( 'NONE', *, *, #213, .F. ) ;
#95 = PERSON_AND_ORGANIZATION_ROLE ( 'design_supplier' ) ;
#96 = VERTEX_POINT ( 'NONE', #219 ) ;
#97 = DIRECTION ( 'NONE',  ( -9.990758376829300308E-17, -0.000000000000000000, -1.000000000000000000 ) ) ;
#98 = CLOSED_SHELL ( 'NONE', ( #3, #128, #69, #149, #204, #161 ) ) ;
#99 = EDGE_CURVE ( 'NONE', #96, #154, #238, .T. ) ;
#100 = CARTESIAN_POINT ( 'NONE',  ( -2.200000000000000178, 0.1899999999999999745, 5.250000000000000000 ) ) ;
#101 = LINE ( 'NONE', #12, #197 ) ;
#102 = ORIENTED_EDGE ( 'NONE', *, *, #119, .F. ) ;
#103 = DIRECTION ( 'NONE',  ( -9.990758376829311401E-17, -0.000000000000000000, 1.000000000000000000 ) ) ;
#104 = CC_DESIGN_PERSON_AND_ORGANIZATION_ASSIGNMENT ( #76, #179, ( #63 ) ) ;
#105 = APPLICATION_PROTOCOL_DEFINITION ( 'international standard', 'config_control_design', 1994, #158 ) ;
#106 = PRODUCT_DEFINITION_SHAPE ( 'NONE', 'NONE',  #140 ) ;
#107 =( NAMED_UNIT ( * ) PLANE_ANGLE_UNIT ( ) SI_UNIT ( $, .RADIAN. ) );
#108 = AXIS2_PLACEMENT_3D ( 'NONE', #84, #185, #183 ) ;
#109 = ADVANCED_BREP_SHAPE_REPRESENTATION ( 'WD10-6_Default', ( #180, #222 ), #26 ) ;
#110 = LENGTH_MEASURE_WITH_UNIT ( LENGTH_MEASURE( 0.02539999999999999897 ), #38 );
#111 = AXIS2_PLACEMENT_3D ( 'NONE', #236, #217, #202 ) ;
#112 = CC_DESIGN_PERSON_AND_ORGANIZATION_ASSIGNMENT ( #66, #36, ( #166 ) ) ;
#113 = ORIENTED_EDGE ( 'NONE', *, *, #233, .F. ) ;
#114 = DATE_AND_TIME ( #196, #125 ) ;
#115 = EDGE_CURVE ( 'NONE', #45, #73, #123, .T. ) ;
#116 = ORIENTED_EDGE ( 'NONE', *, *, #2, .F. ) ;
#117 = VECTOR ( 'NONE', #239, 39.37007874015748143 ) ;
#118 = CALENDAR_DATE ( 2023, 20, 12 ) ;
#119 = EDGE_CURVE ( 'NONE', #78, #133, #101, .T. ) ;
#120 = FACE_OUTER_BOUND ( 'NONE', #92, .T. ) ;
#121 = AXIS2_PLACEMENT_3D ( 'NONE', #62, #8, #33 ) ;
#122 = CARTESIAN_POINT ( 'NONE',  ( 2.200000000000000178, 0.000000000000000000, 5.250000000000000000 ) ) ;
#123 = LINE ( 'NONE', #51, #35 ) ;
#124 = CARTESIAN_POINT ( 'NONE',  ( -2.200000000000000178, 0.000000000000000000, -5.250000000000000000 ) ) ;
#125 = LOCAL_TIME ( 14, 45, 8.000000000000000000, #21 ) ;
#126 = CARTESIAN_POINT ( 'NONE',  ( -2.200000000000000178, 0.000000000000000000, -1.133404363816459993E-15 ) ) ;
#127 = PERSON_AND_ORGANIZATION ( #150, #134 ) ;
#128 = ADVANCED_FACE ( 'NONE', ( #160 ), #139, .T. ) ;
#129 = CARTESIAN_POINT ( 'NONE',  ( -2.200000000000000178, 0.000000000000000000, -5.250000000000000000 ) ) ;
#130 = PERSON_AND_ORGANIZATION_ROLE ( 'creator' ) ;
#131 = DIMENSIONAL_EXPONENTS ( 1.000000000000000000, 0.000000000000000000, 0.000000000000000000, 0.000000000000000000, 0.000000000000000000, 0.000000000000000000, 0.000000000000000000 ) ;
#132 = LINE ( 'NONE', #207, #87 ) ;
#133 = VERTEX_POINT ( 'NONE', #184 ) ;
#134 = ORGANIZATION ( 'UNSPECIFIED', 'UNSPECIFIED', '' ) ;
#135 = DATE_TIME_ROLE ( 'classification_date' ) ;
#136 = ORIENTED_EDGE ( 'NONE', *, *, #119, .T. ) ;
#137 = SHAPE_DEFINITION_REPRESENTATION ( #106, #109 ) ;
#138 = LOCAL_TIME ( 14, 45, 8.000000000000000000, #209 ) ;
#139 = PLANE ( 'NONE',  #111 ) ;
#140 = PRODUCT_DEFINITION ( 'UNKNOWN', '', #186, #162 ) ;
#141 = ORIENTED_EDGE ( 'NONE', *, *, #115, .F. ) ;
#142 = CARTESIAN_POINT ( 'NONE',  ( -2.200000000000000178, 0.1899999999999999745, -5.250000000000000000 ) ) ;
#143 = CC_DESIGN_DATE_AND_TIME_ASSIGNMENT ( #23, #135, ( #63 ) ) ;
#144 = CARTESIAN_POINT ( 'NONE',  ( -2.199999999999999289, 0.000000000000000000, 5.250000000000000000 ) ) ;
#145 = APPLICATION_CONTEXT ( 'configuration controlled 3d designs of mechanical parts and assemblies' ) ;
#146 = DIRECTION ( 'NONE',  ( 0.000000000000000000, 1.000000000000000000, 0.000000000000000000 ) ) ;
#147 = APPROVAL_PERSON_ORGANIZATION ( #86, #199, #229 ) ;
#148 =( CONVERSION_BASED_UNIT ( 'INCH', #110 ) LENGTH_UNIT ( ) NAMED_UNIT ( #131 ) );
#149 = ADVANCED_FACE ( 'NONE', ( #120 ), #181, .T. ) ;
#150 = PERSON ( 'UNSPECIFIED', 'UNSPECIFIED', 'UNSPECIFIED', ('UNSPECIFIED'), ('UNSPECIFIED'), ('UNSPECIFIED') ) ;
#151 =( NAMED_UNIT ( * ) SI_UNIT ( $, .STERADIAN. ) SOLID_ANGLE_UNIT ( ) );
#152 = LOCAL_TIME ( 14, 45, 8.000000000000000000, #44 ) ;
#153 = EDGE_LOOP ( 'NONE', ( #193, #116, #231, #42 ) ) ;
#154 = VERTEX_POINT ( 'NONE', #144 ) ;
#155 = APPROVAL_DATE_TIME ( #114, #199 ) ;
#156 = ORIENTED_EDGE ( 'NONE', *, *, #208, .T. ) ;
#157 = VERTEX_POINT ( 'NONE', #11 ) ;
#158 = APPLICATION_CONTEXT ( 'configuration controlled 3d designs of mechanical parts and assemblies' ) ;
#159 = PERSON_AND_ORGANIZATION ( #150, #134 ) ;
#160 = FACE_OUTER_BOUND ( 'NONE', #177, .T. ) ;
#161 = ADVANCED_FACE ( 'NONE', ( #61 ), #83, .T. ) ;
#162 = DESIGN_CONTEXT ( 'detailed design', #158, 'design' ) ;
#163 = DIRECTION ( 'NONE',  ( -1.000000000000000000, -0.000000000000000000, 3.178877665354779959E-16 ) ) ;
#164 = LINE ( 'NONE', #32, #230 ) ;
#165 = ORIENTED_EDGE ( 'NONE', *, *, #192, .T. ) ;
#166 = PRODUCT ( 'WD10-6_Default', 'WD10-6_Default', '', ( #228 ) ) ;
#167 = CARTESIAN_POINT ( 'NONE',  ( 2.200000000000000178, 0.000000000000000000, 5.249999999999999112 ) ) ;
#168 = APPROVAL_STATUS ( 'not_yet_approved' ) ;
#169 = APPROVAL_PERSON_ORGANIZATION ( #159, #14, #198 ) ;
#170 = APPROVAL_STATUS ( 'not_yet_approved' ) ;
#171 = CC_DESIGN_DATE_AND_TIME_ASSIGNMENT ( #89, #173, ( #140 ) ) ;
#172 = PERSON_AND_ORGANIZATION ( #150, #134 ) ;
#173 = DATE_TIME_ROLE ( 'creation_date' ) ;
#174 = DIRECTION ( 'NONE',  ( 0.000000000000000000, 0.000000000000000000, 1.000000000000000000 ) ) ;
#175 = CC_DESIGN_SECURITY_CLASSIFICATION ( #63, ( #186 ) ) ;
#176 = ORIENTED_EDGE ( 'NONE', *, *, #2, .T. ) ;
#177 = EDGE_LOOP ( 'NONE', ( #156, #7, #77, #176 ) ) ;
#178 = ORIENTED_EDGE ( 'NONE', *, *, #224, .F. ) ;
#179 = PERSON_AND_ORGANIZATION_ROLE ( 'classification_officer' ) ;
#180 = MANIFOLD_SOLID_BREP ( 'Solid1', #98 ) ;
#181 = PLANE ( 'NONE',  #121 ) ;
#182 = AXIS2_PLACEMENT_3D ( 'NONE', #232, #216, #47 ) ;
#183 = DIRECTION ( 'NONE',  ( 0.000000000000000000, -0.000000000000000000, 1.000000000000000000 ) ) ;
#184 = CARTESIAN_POINT ( 'NONE',  ( 2.200000000000000178, 0.1899999999999999745, 5.249999999999999112 ) ) ;
#185 = DIRECTION ( 'NONE',  ( 0.000000000000000000, 1.000000000000000000, 0.000000000000000000 ) ) ;
#186 = PRODUCT_DEFINITION_FORMATION_WITH_SPECIFIED_SOURCE ( 'ANY', '', #166, .NOT_KNOWN. ) ;
#187 = CARTESIAN_POINT ( 'NONE',  ( -2.199999999999999734, 0.1899999999999999745, 5.250000000000000000 ) ) ;
#188 = DIRECTION ( 'NONE',  ( 9.990758376829300308E-17, 0.000000000000000000, 1.000000000000000000 ) ) ;
#189 = PLANE ( 'NONE',  #79 ) ;
#190 = LINE ( 'NONE', #37, #90 ) ;
#191 = APPROVAL_DATE_TIME ( #93, #14 ) ;
#192 = EDGE_CURVE ( 'NONE', #133, #45, #30, .T. ) ;
#193 = ORIENTED_EDGE ( 'NONE', *, *, #115, .T. ) ;
#194 = PERSON_AND_ORGANIZATION ( #150, #134 ) ;
#195 = ORIENTED_EDGE ( 'NONE', *, *, #213, .T. ) ;
#196 = CALENDAR_DATE ( 2023, 20, 12 ) ;
#197 = VECTOR ( 'NONE', #103, 39.37007874015748143 ) ;
#198 = APPROVAL_ROLE ( '' ) ;
#199 = APPROVAL ( #170, 'UNSPECIFIED' ) ;
#200 = PLANE ( 'NONE',  #5 ) ;
#201 = FACE_OUTER_BOUND ( 'NONE', #6, .T. ) ;
#202 = DIRECTION ( 'NONE',  ( -1.000000000000000000, 0.000000000000000000, -0.000000000000000000 ) ) ;
#203 = FACE_OUTER_BOUND ( 'NONE', #80, .T. ) ;
#204 = ADVANCED_FACE ( 'NONE', ( #234 ), #189, .T. ) ;
#205 = LINE ( 'NONE', #1, #31 ) ;
#206 = DIRECTION ( 'NONE',  ( 1.000000000000000000, 0.000000000000000000, 0.000000000000000000 ) ) ;
#207 = CARTESIAN_POINT ( 'NONE',  ( 2.217470019694710007E-16, 0.000000000000000000, 5.250000000000000000 ) ) ;
#208 = EDGE_CURVE ( 'NONE', #73, #78, #190, .T. ) ;
#209 = COORDINATED_UNIVERSAL_TIME_OFFSET ( 5, 0, .BEHIND. ) ;
#210 = SECURITY_CLASSIFICATION_LEVEL ( 'unclassified' ) ;
#211 = CC_DESIGN_PERSON_AND_ORGANIZATION_ASSIGNMENT ( #127, #130, ( #140 ) ) ;
#212 = PERSON_AND_ORGANIZATION_ROLE ( 'creator' ) ;
#213 = EDGE_CURVE ( 'NONE', #48, #157, #71, .T. ) ;
#214 = ORIENTED_EDGE ( 'NONE', *, *, #18, .F. ) ;
#215 = VECTOR ( 'NONE', #34, 39.37007874015748143 ) ;
#216 = DIRECTION ( 'NONE',  ( 0.000000000000000000, 1.000000000000000000, 0.000000000000000000 ) ) ;
#217 = DIRECTION ( 'NONE',  ( 0.000000000000000000, 0.000000000000000000, -1.000000000000000000 ) ) ;
#218 = VECTOR ( 'NONE', #72, 39.37007874015748143 ) ;
#219 = CARTESIAN_POINT ( 'NONE',  ( -2.200000000000000178, 0.000000000000000000, -5.250000000000000000 ) ) ;
#220 = LINE ( 'NONE', #124, #226 ) ;
#221 = DIRECTION ( 'NONE',  ( -0.000000000000000000, -1.000000000000000000, -0.000000000000000000 ) ) ;
#222 = AXIS2_PLACEMENT_3D ( 'NONE', #68, #174, #206 ) ;
#223 = COORDINATED_UNIVERSAL_TIME_OFFSET ( 5, 0, .BEHIND. ) ;
#224 = EDGE_CURVE ( 'NONE', #154, #48, #132, .T. ) ;
#225 = DIRECTION ( 'NONE',  ( 1.000000000000000000, 0.000000000000000000, -0.000000000000000000 ) ) ;
#226 = VECTOR ( 'NONE', #146, 39.37007874015748143 ) ;
#227 = CARTESIAN_POINT ( 'NONE',  ( -2.200000000000000178, 0.000000000000000000, 5.250000000000000000 ) ) ;
#228 = MECHANICAL_CONTEXT ( 'NONE', #145, 'mechanical' ) ;
#229 = APPROVAL_ROLE ( '' ) ;
#230 = VECTOR ( 'NONE', #221, 39.37007874015748143 ) ;
#231 = ORIENTED_EDGE ( 'NONE', *, *, #99, .T. ) ;
#232 = CARTESIAN_POINT ( 'NONE',  ( 3.496765431890259976E-16, 0.1899999999999999745, -1.398706172756100046E-15 ) ) ;
#233 = EDGE_CURVE ( 'NONE', #157, #96, #205, .T. ) ;
#234 = FACE_OUTER_BOUND ( 'NONE', #153, .T. ) ;
#235 = ORIENTED_EDGE ( 'NONE', *, *, #57, .F. ) ;
#236 = CARTESIAN_POINT ( 'NONE',  ( 2.200000000000000178, 0.000000000000000000, -5.250000000000000000 ) ) ;
#237 = EDGE_CURVE ( 'NONE', #45, #154, #40, .T. ) ;
#238 = LINE ( 'NONE', #126, #13 ) ;
#239 = DIRECTION ( 'NONE',  ( -0.000000000000000000, 0.000000000000000000, -1.000000000000000000 ) ) ;
#240 = CALENDAR_DATE ( 2023, 20, 12 ) ;
ENDSEC;
END-ISO-10303-21;
