ISO-10303-21;
HEADER;
FILE_DESCRIPTION (( 'STEP AP203' ),
    '1' );
FILE_NAME ('WD10-5_Default.step',
    '2023-12-20T19:45:05',
    ( 'Windows User' ),
    ( 'AUTOMATION DIRECT' ),
    'SwSTEP 2.0',
    'SolidWorks 2023',
    '' );
FILE_SCHEMA (( 'CONFIG_CONTROL_DESIGN' ));
ENDSEC;

DATA;
#1 = CARTESIAN_POINT ( 'NONE',  ( -1.750000000000000000, 0.1899999999999999745, 5.250000000000000000 ) ) ;
#2 = UNCERTAINTY_MEASURE_WITH_UNIT (LENGTH_MEASURE( 1.000000000000000082E-05 ), #43, 'distance_accuracy_value', 'NONE');
#3 = DIRECTION ( 'NONE',  ( 1.000000000000000000, -0.000000000000000000, 9.990758376829311401E-17 ) ) ;
#4 = DIRECTION ( 'NONE',  ( -0.000000000000000000, -1.000000000000000000, -0.000000000000000000 ) ) ;
#5 = PLANE ( 'NONE',  #160 ) ;
#6 = CARTESIAN_POINT ( 'NONE',  ( 1.750000000000000000, 0.1899999999999999745, 5.250000000000000000 ) ) ;
#7 = ADVANCED_FACE ( 'NONE', ( #175 ), #136, .F. ) ;
#8 = CARTESIAN_POINT ( 'NONE',  ( -1.750000000000000000, 0.000000000000000000, -5.249999999999999112 ) ) ;
#9 = CARTESIAN_POINT ( 'NONE',  ( -1.750000000000000000, 0.000000000000000000, 5.250000000000000000 ) ) ;
#10 = DIRECTION ( 'NONE',  ( -9.990758376829311401E-17, -0.000000000000000000, 1.000000000000000000 ) ) ;
#11 = APPROVAL_DATE_TIME ( #145, #119 ) ;
#12 = VECTOR ( 'NONE', #155, 39.37007874015748143 ) ;
#13 = CALENDAR_DATE ( 2023, 20, 12 ) ;
#14 = APPROVAL_STATUS ( 'not_yet_approved' ) ;
#15 = CC_DESIGN_PERSON_AND_ORGANIZATION_ASSIGNMENT ( #32, #51, ( #108 ) ) ;
#16 = ORIENTED_EDGE ( 'NONE', *, *, #148, .T. ) ;
#17 = VECTOR ( 'NONE', #197, 39.37007874015748143 ) ;
#18 = DIRECTION ( 'NONE',  ( 5.551115123125780853E-17, 1.000000000000000000, -3.604890244612329845E-32 ) ) ;
#19 = VERTEX_POINT ( 'NONE', #208 ) ;
#20 = DIRECTION ( 'NONE',  ( -1.000000000000000000, 0.000000000000000000, 6.660505584552870570E-17 ) ) ;
#21 = VECTOR ( 'NONE', #84, 39.37007874015748143 ) ;
#22 = CARTESIAN_POINT ( 'NONE',  ( -1.180010831908969995E-16, 0.000000000000000000, -1.324267156109839967E-15 ) ) ;
#23 = LINE ( 'NONE', #60, #12 ) ;
#24 = EDGE_CURVE ( 'NONE', #19, #150, #239, .T. ) ;
#25 = DIRECTION ( 'NONE',  ( 1.998151675365860062E-16, -0.000000000000000000, 1.000000000000000000 ) ) ;
#26 = EDGE_LOOP ( 'NONE', ( #133, #115, #209, #96 ) ) ;
#27 = APPROVAL_ROLE ( '' ) ;
#28 = VECTOR ( 'NONE', #137, 39.37007874015748143 ) ;
#29 = SECURITY_CLASSIFICATION_LEVEL ( 'unclassified' ) ;
#30 = LOCAL_TIME ( 14, 45, 5.000000000000000000, #92 ) ;
#31 = PERSON_AND_ORGANIZATION_ROLE ( 'creator' ) ;
#32 = PERSON_AND_ORGANIZATION ( #221, #112 ) ;
#33 = PERSON_AND_ORGANIZATION_ROLE ( 'creator' ) ;
#34 = VECTOR ( 'NONE', #231, 39.37007874015748143 ) ;
#35 = ORIENTED_EDGE ( 'NONE', *, *, #135, .T. ) ;
#36 = CC_DESIGN_DATE_AND_TIME_ASSIGNMENT ( #125, #110, ( #131 ) ) ;
#37 = PLANE ( 'NONE',  #78 ) ;
#38 = ORIENTED_EDGE ( 'NONE', *, *, #54, .T. ) ;
#39 = FACE_OUTER_BOUND ( 'NONE', #116, .T. ) ;
#40 = CARTESIAN_POINT ( 'NONE',  ( 1.750000000000000000, 0.000000000000000000, -5.250000000000000000 ) ) ;
#41 = VECTOR ( 'NONE', #170, 39.37007874015748143 ) ;
#42 = LINE ( 'NONE', #8, #21 ) ;
#43 =( CONVERSION_BASED_UNIT ( 'INCH', #157 ) LENGTH_UNIT ( ) NAMED_UNIT ( #70 ) );
#44 = LINE ( 'NONE', #46, #17 ) ;
#45 = CC_DESIGN_APPROVAL ( #235, ( #215 ) ) ;
#46 = CARTESIAN_POINT ( 'NONE',  ( -1.750000000000000000, 0.1899999999999999745, -5.250000000000000000 ) ) ;
#47 = ORIENTED_EDGE ( 'NONE', *, *, #107, .T. ) ;
#48 = DIRECTION ( 'NONE',  ( -1.000000000000000000, 0.000000000000000000, 1.998151675365860062E-16 ) ) ;
#49 = PERSON_AND_ORGANIZATION ( #221, #112 ) ;
#50 = CALENDAR_DATE ( 2023, 20, 12 ) ;
#51 = PERSON_AND_ORGANIZATION_ROLE ( 'design_owner' ) ;
#52 = DATE_AND_TIME ( #13, #30 ) ;
#53 = LOCAL_TIME ( 14, 45, 5.000000000000000000, #88 ) ;
#54 = EDGE_CURVE ( 'NONE', #216, #223, #74, .T. ) ;
#55 = ORIENTED_EDGE ( 'NONE', *, *, #24, .T. ) ;
#56 = ORIENTED_EDGE ( 'NONE', *, *, #225, .T. ) ;
#57 = ORIENTED_EDGE ( 'NONE', *, *, #54, .F. ) ;
#58 = LINE ( 'NONE', #188, #233 ) ;
#59 = LINE ( 'NONE', #101, #34 ) ;
#60 = CARTESIAN_POINT ( 'NONE',  ( -1.180010831908969995E-16, -1.892567378421472854E-31, -5.250000000000000000 ) ) ;
#61 = EDGE_CURVE ( 'NONE', #111, #153, #58, .T. ) ;
#62 = LINE ( 'NONE', #9, #139 ) ;
#63 = CARTESIAN_POINT ( 'NONE',  ( -1.750000000000000000, 0.1899999999999999745, -5.249999999999999112 ) ) ;
#64 = CARTESIAN_POINT ( 'NONE',  ( -1.750000000000000000, 2.428612866367524077E-17, -5.249999999999999112 ) ) ;
#65 = AXIS2_PLACEMENT_3D ( 'NONE', #121, #25, #176 ) ;
#66 = APPLICATION_CONTEXT ( 'configuration controlled 3d designs of mechanical parts and assemblies' ) ;
#67 = PERSON_AND_ORGANIZATION ( #221, #112 ) ;
#68 = LOCAL_TIME ( 14, 45, 5.000000000000000000, #69 ) ;
#69 = COORDINATED_UNIVERSAL_TIME_OFFSET ( 5, 0, .BEHIND. ) ;
#70 = DIMENSIONAL_EXPONENTS ( 1.000000000000000000, 0.000000000000000000, 0.000000000000000000, 0.000000000000000000, 0.000000000000000000, 0.000000000000000000, 0.000000000000000000 ) ;
#71 = ORIENTED_EDGE ( 'NONE', *, *, #163, .T. ) ;
#72 = CC_DESIGN_PERSON_AND_ORGANIZATION_ASSIGNMENT ( #49, #31, ( #131 ) ) ;
#73 = AXIS2_PLACEMENT_3D ( 'NONE', #126, #218, #237 ) ;
#74 = LINE ( 'NONE', #95, #174 ) ;
#75 = ADVANCED_FACE ( 'NONE', ( #132 ), #37, .T. ) ;
#76 = DIRECTION ( 'NONE',  ( -1.000000000000000000, -0.000000000000000000, 1.998151675365860062E-16 ) ) ;
#77 = ORIENTED_EDGE ( 'NONE', *, *, #210, .T. ) ;
#78 = AXIS2_PLACEMENT_3D ( 'NONE', #228, #3, #79 ) ;
#79 = DIRECTION ( 'NONE',  ( 9.990758376829311401E-17, 0.000000000000000000, -1.000000000000000000 ) ) ;
#80 = FACE_OUTER_BOUND ( 'NONE', #226, .T. ) ;
#81 = PLANE ( 'NONE',  #206 ) ;
#82 = CC_DESIGN_PERSON_AND_ORGANIZATION_ASSIGNMENT ( #201, #33, ( #138 ) ) ;
#83 = LOCAL_TIME ( 14, 45, 5.000000000000000000, #89 ) ;
#84 = DIRECTION ( 'NONE',  ( 0.000000000000000000, 1.000000000000000000, 0.000000000000000000 ) ) ;
#85 = DIRECTION ( 'NONE',  ( -0.000000000000000000, -1.000000000000000000, -0.000000000000000000 ) ) ;
#86 = CARTESIAN_POINT ( 'NONE',  ( 1.750000000000000000, 0.1899999999999999745, -5.250000000000000000 ) ) ;
#87 = CALENDAR_DATE ( 2023, 20, 12 ) ;
#88 = COORDINATED_UNIVERSAL_TIME_OFFSET ( 5, 0, .BEHIND. ) ;
#89 = COORDINATED_UNIVERSAL_TIME_OFFSET ( 5, 0, .BEHIND. ) ;
#90 = LOCAL_TIME ( 14, 45, 5.000000000000000000, #161 ) ;
#91 = APPROVAL_ROLE ( '' ) ;
#92 = COORDINATED_UNIVERSAL_TIME_OFFSET ( 5, 0, .BEHIND. ) ;
#93 = PRODUCT_DEFINITION_SHAPE ( 'NONE', 'NONE',  #131 ) ;
#94 = ORIENTED_EDGE ( 'NONE', *, *, #204, .T. ) ;
#95 = CARTESIAN_POINT ( 'NONE',  ( 1.750000000000000000, 0.000000000000000000, 5.250000000000000000 ) ) ;
#96 = ORIENTED_EDGE ( 'NONE', *, *, #135, .F. ) ;
#97 = PLANE ( 'NONE',  #128 ) ;
#98 = MANIFOLD_SOLID_BREP ( 'Solid1', #117 ) ;
#99 = EDGE_CURVE ( 'NONE', #216, #207, #113, .T. ) ;
#100 = CARTESIAN_POINT ( 'NONE',  ( 1.750000000000000444, -2.428612866367533322E-17, -5.250000000000000000 ) ) ;
#101 = CARTESIAN_POINT ( 'NONE',  ( -1.180010831908969995E-16, 1.892567378421473729E-31, 5.250000000000000000 ) ) ;
#102 = ADVANCED_FACE ( 'NONE', ( #39 ), #97, .T. ) ;
#103 = DIRECTION ( 'NONE',  ( -1.998151675365860062E-16, 0.000000000000000000, -1.000000000000000000 ) ) ;
#104 = CC_DESIGN_PERSON_AND_ORGANIZATION_ASSIGNMENT ( #200, #185, ( #215 ) ) ;
#105 =( NAMED_UNIT ( * ) PLANE_ANGLE_UNIT ( ) SI_UNIT ( $, .RADIAN. ) );
#106 = PERSON_AND_ORGANIZATION_ROLE ( 'design_supplier' ) ;
#107 = EDGE_CURVE ( 'NONE', #153, #223, #59, .T. ) ;
#108 = PRODUCT ( 'WD10-5_Default', 'WD10-5_Default', '', ( #124 ) ) ;
#109 = DATE_TIME_ROLE ( 'classification_date' ) ;
#110 = DATE_TIME_ROLE ( 'creation_date' ) ;
#111 = VERTEX_POINT ( 'NONE', #64 ) ;
#112 = ORGANIZATION ( 'UNSPECIFIED', 'UNSPECIFIED', '' ) ;
#113 = LINE ( 'NONE', #1, #202 ) ;
#114 = EDGE_LOOP ( 'NONE', ( #205, #56, #47, #57 ) ) ;
#115 = ORIENTED_EDGE ( 'NONE', *, *, #167, .F. ) ;
#116 = EDGE_LOOP ( 'NONE', ( #35, #227, #168, #171 ) ) ;
#117 = CLOSED_SHELL ( 'NONE', ( #7, #193, #75, #151, #102, #123 ) ) ;
#118 = CARTESIAN_POINT ( 'NONE',  ( 1.750000000000000000, -2.428612866367524077E-17, 5.249999999999999112 ) ) ;
#119 = APPROVAL ( #222, 'UNSPECIFIED' ) ;
#120 = PLANE ( 'NONE',  #65 ) ;
#121 = CARTESIAN_POINT ( 'NONE',  ( -1.750000000000000000, 0.000000000000000000, 5.250000000000000000 ) ) ;
#122 = CARTESIAN_POINT ( 'NONE',  ( 1.750000000000000000, 0.1899999999999999745, 5.249999999999999112 ) ) ;
#123 = ADVANCED_FACE ( 'NONE', ( #179 ), #81, .T. ) ;
#124 = MECHANICAL_CONTEXT ( 'NONE', #66, 'mechanical' ) ;
#125 = DATE_AND_TIME ( #87, #68 ) ;
#126 = CARTESIAN_POINT ( 'NONE',  ( 0.000000000000000000, 0.000000000000000000, 0.000000000000000000 ) ) ;
#127 = CALENDAR_DATE ( 2023, 20, 12 ) ;
#128 = AXIS2_PLACEMENT_3D ( 'NONE', #191, #20, #154 ) ;
#129 = DATE_AND_TIME ( #183, #53 ) ;
#130 = EDGE_LOOP ( 'NONE', ( #224, #38, #16, #189 ) ) ;
#131 = PRODUCT_DEFINITION ( 'UNKNOWN', '', #138, #173 ) ;
#132 = FACE_OUTER_BOUND ( 'NONE', #130, .T. ) ;
#133 = ORIENTED_EDGE ( 'NONE', *, *, #99, .F. ) ;
#134 = ORIENTED_EDGE ( 'NONE', *, *, #61, .F. ) ;
#135 = EDGE_CURVE ( 'NONE', #207, #147, #44, .T. ) ;
#136 = PLANE ( 'NONE',  #152 ) ;
#137 = DIRECTION ( 'NONE',  ( 1.000000000000000000, -0.000000000000000000, -1.998151675365860062E-16 ) ) ;
#138 = PRODUCT_DEFINITION_FORMATION_WITH_SPECIFIED_SOURCE ( 'ANY', '', #108, .NOT_KNOWN. ) ;
#139 = VECTOR ( 'NONE', #85, 39.37007874015748143 ) ;
#140 = LINE ( 'NONE', #177, #169 ) ;
#141 = DIRECTION ( 'NONE',  ( 0.000000000000000000, 1.000000000000000000, 0.000000000000000000 ) ) ;
#142 = CC_DESIGN_SECURITY_CLASSIFICATION ( #215, ( #138 ) ) ;
#143 = APPLICATION_PROTOCOL_DEFINITION ( 'international standard', 'config_control_design', 1994, #164 ) ;
#144 = CC_DESIGN_APPROVAL ( #119, ( #131 ) ) ;
#145 = DATE_AND_TIME ( #127, #90 ) ;
#146 = APPROVAL ( #219, 'UNSPECIFIED' ) ;
#147 = VERTEX_POINT ( 'NONE', #63 ) ;
#148 = EDGE_CURVE ( 'NONE', #223, #150, #140, .T. ) ;
#149 = ORIENTED_EDGE ( 'NONE', *, *, #148, .F. ) ;
#150 = VERTEX_POINT ( 'NONE', #100 ) ;
#151 = ADVANCED_FACE ( 'NONE', ( #214 ), #120, .T. ) ;
#152 = AXIS2_PLACEMENT_3D ( 'NONE', #22, #18, #192 ) ;
#153 = VERTEX_POINT ( 'NONE', #229 ) ;
#154 = DIRECTION ( 'NONE',  ( 6.660505584552870570E-17, 0.000000000000000000, 1.000000000000000000 ) ) ;
#155 = DIRECTION ( 'NONE',  ( -1.000000000000000000, 5.551115123125780853E-17, 0.000000000000000000 ) ) ;
#156 = CARTESIAN_POINT ( 'NONE',  ( 1.750000000000000000, 0.000000000000000000, -5.250000000000000000 ) ) ;
#157 = LENGTH_MEASURE_WITH_UNIT ( LENGTH_MEASURE( 0.02539999999999999897 ), #159 );
#158 = ADVANCED_BREP_SHAPE_REPRESENTATION ( 'WD10-5_Default', ( #98, #73 ), #181 ) ;
#159 =( LENGTH_UNIT ( ) NAMED_UNIT ( * ) SI_UNIT ( $, .METRE. ) );
#160 = AXIS2_PLACEMENT_3D ( 'NONE', #156, #103, #48 ) ;
#161 = COORDINATED_UNIVERSAL_TIME_OFFSET ( 5, 0, .BEHIND. ) ;
#162 = APPROVAL_DATE_TIME ( #129, #235 ) ;
#163 = EDGE_CURVE ( 'NONE', #111, #147, #42, .T. ) ;
#164 = APPLICATION_CONTEXT ( 'configuration controlled 3d designs of mechanical parts and assemblies' ) ;
#165 = APPROVAL_PERSON_ORGANIZATION ( #184, #235, #91 ) ;
#166 = PERSON_AND_ORGANIZATION ( #221, #112 ) ;
#167 = EDGE_CURVE ( 'NONE', #19, #216, #196, .T. ) ;
#168 = ORIENTED_EDGE ( 'NONE', *, *, #61, .T. ) ;
#169 = VECTOR ( 'NONE', #194, 39.37007874015748143 ) ;
#170 = DIRECTION ( 'NONE',  ( -0.000000000000000000, -1.000000000000000000, -0.000000000000000000 ) ) ;
#171 = ORIENTED_EDGE ( 'NONE', *, *, #225, .F. ) ;
#172 = DIRECTION ( 'NONE',  ( 2.001116075407609719E-48, 3.604890244612329845E-32, 1.000000000000000000 ) ) ;
#173 = DESIGN_CONTEXT ( 'detailed design', #164, 'design' ) ;
#174 = VECTOR ( 'NONE', #4, 39.37007874015748143 ) ;
#175 = FACE_OUTER_BOUND ( 'NONE', #240, .T. ) ;
#176 = DIRECTION ( 'NONE',  ( 1.000000000000000000, 0.000000000000000000, -1.998151675365860062E-16 ) ) ;
#177 = CARTESIAN_POINT ( 'NONE',  ( 1.750000000000000000, -9.714451465470114798E-17, -1.324267156109839967E-15 ) ) ;
#178 = VECTOR ( 'NONE', #10, 39.37007874015748143 ) ;
#179 = FACE_OUTER_BOUND ( 'NONE', #26, .T. ) ;
#180 =( NAMED_UNIT ( * ) SI_UNIT ( $, .STERADIAN. ) SOLID_ANGLE_UNIT ( ) );
#181 =( GEOMETRIC_REPRESENTATION_CONTEXT ( 3 ) GLOBAL_UNCERTAINTY_ASSIGNED_CONTEXT ( ( #2 ) ) GLOBAL_UNIT_ASSIGNED_CONTEXT ( ( #43, #105, #180 ) ) REPRESENTATION_CONTEXT ( 'NONE', 'WORKASPACE' ) );
#182 = APPROVAL_ROLE ( '' ) ;
#183 = CALENDAR_DATE ( 2023, 20, 12 ) ;
#184 = PERSON_AND_ORGANIZATION ( #221, #112 ) ;
#185 = PERSON_AND_ORGANIZATION_ROLE ( 'classification_officer' ) ;
#186 = ORIENTED_EDGE ( 'NONE', *, *, #107, .F. ) ;
#187 = CC_DESIGN_APPROVAL ( #146, ( #138 ) ) ;
#188 = CARTESIAN_POINT ( 'NONE',  ( -1.750000000000000000, 9.714451465470114798E-17, -1.324267156109839967E-15 ) ) ;
#189 = ORIENTED_EDGE ( 'NONE', *, *, #24, .F. ) ;
#190 = CC_DESIGN_DATE_AND_TIME_ASSIGNMENT ( #220, #109, ( #215 ) ) ;
#191 = CARTESIAN_POINT ( 'NONE',  ( -1.750000000000000000, 0.000000000000000000, -5.250000000000000000 ) ) ;
#192 = DIRECTION ( 'NONE',  ( -1.000000000000000000, 5.551115123125780853E-17, 0.000000000000000000 ) ) ;
#193 = ADVANCED_FACE ( 'NONE', ( #80 ), #5, .T. ) ;
#194 = DIRECTION ( 'NONE',  ( -2.001116075407609719E-48, -3.604890244612329845E-32, -1.000000000000000000 ) ) ;
#195 = CC_DESIGN_PERSON_AND_ORGANIZATION_ASSIGNMENT ( #199, #106, ( #138 ) ) ;
#196 = LINE ( 'NONE', #6, #178 ) ;
#197 = DIRECTION ( 'NONE',  ( -6.660505584552870570E-17, -0.000000000000000000, -1.000000000000000000 ) ) ;
#198 = APPROVAL_DATE_TIME ( #52, #146 ) ;
#199 = PERSON_AND_ORGANIZATION ( #221, #112 ) ;
#200 = PERSON_AND_ORGANIZATION ( #221, #112 ) ;
#201 = PERSON_AND_ORGANIZATION ( #221, #112 ) ;
#202 = VECTOR ( 'NONE', #76, 39.37007874015748143 ) ;
#203 = ORIENTED_EDGE ( 'NONE', *, *, #204, .F. ) ;
#204 = EDGE_CURVE ( 'NONE', #150, #111, #23, .T. ) ;
#205 = ORIENTED_EDGE ( 'NONE', *, *, #99, .T. ) ;
#206 = AXIS2_PLACEMENT_3D ( 'NONE', #213, #141, #230 ) ;
#207 = VERTEX_POINT ( 'NONE', #232 ) ;
#208 = CARTESIAN_POINT ( 'NONE',  ( 1.750000000000000222, 0.1899999999999999745, -5.250000000000000000 ) ) ;
#209 = ORIENTED_EDGE ( 'NONE', *, *, #210, .F. ) ;
#210 = EDGE_CURVE ( 'NONE', #147, #19, #212, .T. ) ;
#211 = APPROVAL_PERSON_ORGANIZATION ( #166, #119, #27 ) ;
#212 = LINE ( 'NONE', #86, #28 ) ;
#213 = CARTESIAN_POINT ( 'NONE',  ( 0.000000000000000000, 0.1899999999999999745, -1.398706172756100046E-15 ) ) ;
#214 = FACE_OUTER_BOUND ( 'NONE', #114, .T. ) ;
#215 = SECURITY_CLASSIFICATION ( '', '', #29 ) ;
#216 = VERTEX_POINT ( 'NONE', #122 ) ;
#217 = APPLICATION_PROTOCOL_DEFINITION ( 'international standard', 'config_control_design', 1994, #66 ) ;
#218 = DIRECTION ( 'NONE',  ( 0.000000000000000000, 0.000000000000000000, 1.000000000000000000 ) ) ;
#219 = APPROVAL_STATUS ( 'not_yet_approved' ) ;
#220 = DATE_AND_TIME ( #50, #83 ) ;
#221 = PERSON ( 'UNSPECIFIED', 'UNSPECIFIED', 'UNSPECIFIED', ('UNSPECIFIED'), ('UNSPECIFIED'), ('UNSPECIFIED') ) ;
#222 = APPROVAL_STATUS ( 'not_yet_approved' ) ;
#223 = VERTEX_POINT ( 'NONE', #118 ) ;
#224 = ORIENTED_EDGE ( 'NONE', *, *, #167, .T. ) ;
#225 = EDGE_CURVE ( 'NONE', #207, #153, #62, .T. ) ;
#226 = EDGE_LOOP ( 'NONE', ( #77, #55, #94, #71 ) ) ;
#227 = ORIENTED_EDGE ( 'NONE', *, *, #163, .F. ) ;
#228 = CARTESIAN_POINT ( 'NONE',  ( 1.750000000000000000, 0.000000000000000000, 5.250000000000000000 ) ) ;
#229 = CARTESIAN_POINT ( 'NONE',  ( -1.749999999999999556, 2.428612866367533322E-17, 5.250000000000000000 ) ) ;
#230 = DIRECTION ( 'NONE',  ( 0.000000000000000000, -0.000000000000000000, 1.000000000000000000 ) ) ;
#231 = DIRECTION ( 'NONE',  ( 1.000000000000000000, -5.551115123125780853E-17, -0.000000000000000000 ) ) ;
#232 = CARTESIAN_POINT ( 'NONE',  ( -1.749999999999999556, 0.1899999999999999745, 5.250000000000000000 ) ) ;
#233 = VECTOR ( 'NONE', #172, 39.37007874015748143 ) ;
#234 = SHAPE_DEFINITION_REPRESENTATION ( #93, #158 ) ;
#235 = APPROVAL ( #14, 'UNSPECIFIED' ) ;
#236 = APPROVAL_PERSON_ORGANIZATION ( #67, #146, #182 ) ;
#237 = DIRECTION ( 'NONE',  ( 1.000000000000000000, 0.000000000000000000, 0.000000000000000000 ) ) ;
#238 = PRODUCT_RELATED_PRODUCT_CATEGORY ( 'detail', '', ( #108 ) ) ;
#239 = LINE ( 'NONE', #40, #41 ) ;
#240 = EDGE_LOOP ( 'NONE', ( #149, #186, #134, #203 ) ) ;
ENDSEC;
END-ISO-10303-21;
