ISO-10303-21;
HEADER;
FILE_DESCRIPTION (( 'STEP AP214' ),
    '1' );
FILE_NAME ('SP080A-L.STEP',
    '2024-08-06T14:29:05',
    ( '' ),
    ( '' ),
    'SwSTEP 2.0',
    'SolidWorks 2023',
    '' );
FILE_SCHEMA (( 'AUTOMOTIVE_DESIGN' ));
ENDSEC;

DATA;
#1 = CARTESIAN_POINT ( 'NONE',  ( 0.000000000000000000, 0.7677165354328202573, -0.1259842519682103368 ) ) ;
#2 = EDGE_CURVE ( 'NONE', #183, #183, #268, .T. ) ;
#3 = EDGE_LOOP ( 'NONE', ( #136 ) ) ;
#4 = VERTEX_POINT ( 'NONE', #72 ) ;
#5 = EDGE_LOOP ( 'NONE', ( #111 ) ) ;
#6 =( GEOMETRIC_REPRESENTATION_CONTEXT ( 3 ) GLOBAL_UNCERTAINTY_ASSIGNED_CONTEXT ( ( #27 ) ) GLOBAL_UNIT_ASSIGNED_CONTEXT ( ( #12, #181, #180 ) ) REPRESENTATION_CONTEXT ( 'NONE', 'WORKASPACE' ) );
#7 = DIRECTION ( 'NONE',  ( 0.000000000000000000, 0.000000000000000000, 1.000000000000000000 ) ) ;
#8 = PRODUCT_RELATED_PRODUCT_CATEGORY ( 'part', '', ( #194 ) ) ;
#9 = EDGE_LOOP ( 'NONE', ( #139 ) ) ;
#10 = AXIS2_PLACEMENT_3D ( 'NONE', #58, #149, #233 ) ;
#11 = CARTESIAN_POINT ( 'NONE',  ( 0.000000000000000000, -0.6732283464600193890, 0.000000000000000000 ) ) ;
#12 =( CONVERSION_BASED_UNIT ( 'INCH', #251 ) LENGTH_UNIT ( ) NAMED_UNIT ( #61 ) );
#13 = ADVANCED_FACE ( 'NONE', ( #260, #76 ), #155, .T. ) ;
#14 = DIRECTION ( 'NONE',  ( -0.000000000000000000, -1.000000000000000000, -0.000000000000000000 ) ) ;
#15 = CARTESIAN_POINT ( 'NONE',  ( 0.000000000000000000, 0.7677165354330710567, 0.000000000000000000 ) ) ;
#16 = DIRECTION ( 'NONE',  ( 1.000000000000000000, 0.000000000000000000, 0.000000000000000000 ) ) ;
#17 = CARTESIAN_POINT ( 'NONE',  ( 0.000000000000000000, 0.8412204724409451106, 0.000000000000000000 ) ) ;
#18 = FACE_OUTER_BOUND ( 'NONE', #57, .T. ) ;
#19 = SURFACE_STYLE_USAGE ( .BOTH. , #146 ) ;
#20 = DIRECTION ( 'NONE',  ( -0.000000000000000000, -1.000000000000000000, -0.000000000000000000 ) ) ;
#21 = DIRECTION ( 'NONE',  ( 0.000000000000000000, 1.000000000000000000, 0.000000000000000000 ) ) ;
#22 = PRESENTATION_LAYER_ASSIGNMENT (  '', '', ( #121 ) ) ;
#23 = ADVANCED_FACE ( 'NONE', ( #70, #78 ), #32, .T. ) ;
#24 = AXIS2_PLACEMENT_3D ( 'NONE', #164, #124, #16 ) ;
#25 = VERTEX_POINT ( 'NONE', #237 ) ;
#26 = AXIS2_PLACEMENT_3D ( 'NONE', #43, #68, #128 ) ;
#27 = UNCERTAINTY_MEASURE_WITH_UNIT (LENGTH_MEASURE( 1.000000000000000082E-05 ), #12, 'distance_accuracy_value', 'NONE');
#28 = VERTEX_POINT ( 'NONE', #133 ) ;
#29 = CARTESIAN_POINT ( 'NONE',  ( 0.000000000000000000, -0.6732283464566930498, -0.1574803149606299191 ) ) ;
#30 = DIRECTION ( 'NONE',  ( 0.000000000000000000, 0.000000000000000000, 1.000000000000000000 ) ) ;
#31 = EDGE_CURVE ( 'NONE', #86, #86, #246, .T. ) ;
#32 = CYLINDRICAL_SURFACE ( 'NONE', #39, 0.04921259842519685318 ) ;
#33 = PRODUCT_DEFINITION_CONTEXT ( 'detailed design', #219, 'design' ) ;
#34 = ORIENTED_EDGE ( 'NONE', *, *, #91, .F. ) ;
#35 = FACE_OUTER_BOUND ( 'NONE', #213, .T. ) ;
#36 = TOROIDAL_SURFACE ( 'NONE', #201, 0.004212598425196854846, 0.04499999999999999833 ) ;
#37 = EDGE_LOOP ( 'NONE', ( #174 ) ) ;
#38 = APPLICATION_PROTOCOL_DEFINITION ( 'draft international standard', 'automotive_design', 1998, #169 ) ;
#39 = AXIS2_PLACEMENT_3D ( 'NONE', #116, #243, #95 ) ;
#40 = FACE_OUTER_BOUND ( 'NONE', #56, .T. ) ;
#41 =( CONVERSION_BASED_UNIT ( 'INCH', #231 ) LENGTH_UNIT ( ) NAMED_UNIT ( #199 ) );
#42 = AXIS2_PLACEMENT_3D ( 'NONE', #89, #20, #103 ) ;
#43 = CARTESIAN_POINT ( 'NONE',  ( 0.000000000000000000, 0.6732283464566929387, 0.000000000000000000 ) ) ;
#44 = CLOSED_SHELL ( 'NONE', ( #82, #242, #13, #259, #226, #138, #198, #132, #208, #23, #145, #173 ) ) ;
#45 = FACE_OUTER_BOUND ( 'NONE', #9, .T. ) ;
#46 = FACE_OUTER_BOUND ( 'NONE', #217, .T. ) ;
#47 = FACE_BOUND ( 'NONE', #192, .T. ) ;
#48 = DIRECTION ( 'NONE',  ( 0.000000000000000000, 1.000000000000000000, 0.000000000000000000 ) ) ;
#49 = EDGE_CURVE ( 'NONE', #249, #249, #144, .T. ) ;
#50 = VERTEX_POINT ( 'NONE', #135 ) ;
#51 = ORIENTED_EDGE ( 'NONE', *, *, #2, .T. ) ;
#52 = CIRCLE ( 'NONE', #88, 0.05905511811023623353 ) ;
#53 = EDGE_LOOP ( 'NONE', ( #97 ) ) ;
#54 = CARTESIAN_POINT ( 'NONE',  ( 0.000000000000000000, 0.7519685039370079815, -0.1417322834645668994 ) ) ;
#55 = CARTESIAN_POINT ( 'NONE',  ( 0.000000000000000000, 0.6889763779521292930, 0.000000000000000000 ) ) ;
#56 = EDGE_LOOP ( 'NONE', ( #244 ) ) ;
#57 = EDGE_LOOP ( 'NONE', ( #34 ) ) ;
#58 = CARTESIAN_POINT ( 'NONE',  ( 0.000000000000000000, 0.6732283464622573765, 0.000000000000000000 ) ) ;
#59 = CYLINDRICAL_SURFACE ( 'NONE', #225, 0.1574803149606299191 ) ;
#60 = CARTESIAN_POINT ( 'NONE',  ( 0.000000000000000000, -1.097086614173228725, 0.05905511811023623353 ) ) ;
#61 = DIMENSIONAL_EXPONENTS ( 1.000000000000000000, 0.000000000000000000, 0.000000000000000000, 0.000000000000000000, 0.000000000000000000, 0.000000000000000000, 0.000000000000000000 ) ;
#62 = DIRECTION ( 'NONE',  ( 0.000000000000000000, 1.000000000000000000, 0.000000000000000000 ) ) ;
#63 = MECHANICAL_DESIGN_GEOMETRIC_PRESENTATION_REPRESENTATION (  '', ( #121 ), #6 ) ;
#64 = FACE_BOUND ( 'NONE', #200, .T. ) ;
#65 = PRODUCT_DEFINITION ( 'UNKNOWN', '', #270, #33 ) ;
#66 = DIRECTION ( 'NONE',  ( 0.000000000000000000, 0.000000000000000000, 1.000000000000000000 ) ) ;
#67 = AXIS2_PLACEMENT_3D ( 'NONE', #80, #163, #267 ) ;
#68 = DIRECTION ( 'NONE',  ( -0.000000000000000000, -1.000000000000000000, -0.000000000000000000 ) ) ;
#69 = DIRECTION ( 'NONE',  ( 0.000000000000000000, 0.000000000000000000, -1.000000000000000000 ) ) ;
#70 = FACE_OUTER_BOUND ( 'NONE', #3, .T. ) ;
#71 = AXIS2_PLACEMENT_3D ( 'NONE', #75, #115, #156 ) ;
#72 = CARTESIAN_POINT ( 'NONE',  ( 0.000000000000000000, 0.8862204724409450396, 0.004212598425196854846 ) ) ;
#73 = ORIENTED_EDGE ( 'NONE', *, *, #159, .F. ) ;
#74 = EDGE_CURVE ( 'NONE', #28, #28, #234, .T. ) ;
#75 = CARTESIAN_POINT ( 'NONE',  ( 0.000000000000000000, 0.7519685039370079815, 0.000000000000000000 ) ) ;
#76 = FACE_BOUND ( 'NONE', #53, .T. ) ;
#77 = FACE_BOUND ( 'NONE', #216, .T. ) ;
#78 = FACE_OUTER_BOUND ( 'NONE', #202, .T. ) ;
#79 = DIRECTION ( 'NONE',  ( 0.000000000000000000, -0.000000000000000000, 1.000000000000000000 ) ) ;
#80 = CARTESIAN_POINT ( 'NONE',  ( 0.000000000000000000, -1.097086614173228725, 0.000000000000000000 ) ) ;
#81 = FACE_BOUND ( 'NONE', #158, .T. ) ;
#82 = ADVANCED_FACE ( 'NONE', ( #160, #35 ), #59, .T. ) ;
#83 = AXIS2_PLACEMENT_3D ( 'NONE', #11, #161, #30 ) ;
#84 = SURFACE_STYLE_FILL_AREA ( #101 ) ;
#85 = SHAPE_DEFINITION_REPRESENTATION ( #157, #140 ) ;
#86 = VERTEX_POINT ( 'NONE', #165 ) ;
#87 = CARTESIAN_POINT ( 'NONE',  ( 0.000000000000000000, -0.6889763779521292930, 0.000000000000000000 ) ) ;
#88 = AXIS2_PLACEMENT_3D ( 'NONE', #151, #14, #228 ) ;
#89 = CARTESIAN_POINT ( 'NONE',  ( 0.000000000000000000, 0.7677165354330710567, 0.000000000000000000 ) ) ;
#90 = FACE_OUTER_BOUND ( 'NONE', #37, .T. ) ;
#91 = EDGE_CURVE ( 'NONE', #50, #50, #255, .T. ) ;
#92 = FACE_OUTER_BOUND ( 'NONE', #191, .T. ) ;
#93 = EDGE_LOOP ( 'NONE', ( #117 ) ) ;
#94 = ORIENTED_EDGE ( 'NONE', *, *, #2, .F. ) ;
#95 = DIRECTION ( 'NONE',  ( 0.000000000000000000, 0.000000000000000000, -1.000000000000000000 ) ) ;
#96 = MANIFOLD_SOLID_BREP ( 'Fillet1', #44 ) ;
#97 = ORIENTED_EDGE ( 'NONE', *, *, #91, .T. ) ;
#98 = CIRCLE ( 'NONE', #113, 0.1574803149606299191 ) ;
#99 = ORIENTED_EDGE ( 'NONE', *, *, #159, .T. ) ;
#100 = EDGE_LOOP ( 'NONE', ( #131 ) ) ;
#101 = FILL_AREA_STYLE ('',( #123 ) ) ;
#102 = APPLICATION_PROTOCOL_DEFINITION ( 'draft international standard', 'automotive_design', 1998, #219 ) ;
#103 = DIRECTION ( 'NONE',  ( 0.000000000000000000, 0.000000000000000000, -1.000000000000000000 ) ) ;
#104 = DIRECTION ( 'NONE',  ( -0.000000000000000000, 1.000000000000000000, 0.000000000000000000 ) ) ;
#105 = CARTESIAN_POINT ( 'NONE',  ( 0.000000000000000000, -0.6889763779527560139, 0.000000000000000000 ) ) ;
#106 = CARTESIAN_POINT ( 'NONE',  ( 0.000000000000000000, 0.8862204724409450396, 0.000000000000000000 ) ) ;
#107 = AXIS2_PLACEMENT_3D ( 'NONE', #184, #48, #170 ) ;
#108 = EDGE_CURVE ( 'NONE', #152, #152, #253, .T. ) ;
#109 = UNCERTAINTY_MEASURE_WITH_UNIT (LENGTH_MEASURE( 1.000000000000000082E-05 ), #41, 'distance_accuracy_value', 'NONE');
#110 = AXIS2_PLACEMENT_3D ( 'NONE', #257, #178, #177 ) ;
#111 = ORIENTED_EDGE ( 'NONE', *, *, #247, .F. ) ;
#112 = ORIENTED_EDGE ( 'NONE', *, *, #232, .F. ) ;
#113 = AXIS2_PLACEMENT_3D ( 'NONE', #229, #182, #207 ) ;
#114 = VERTEX_POINT ( 'NONE', #29 ) ;
#115 = DIRECTION ( 'NONE',  ( -0.000000000000000000, -1.000000000000000000, -0.000000000000000000 ) ) ;
#116 = CARTESIAN_POINT ( 'NONE',  ( 0.000000000000000000, 0.8858267716535433989, 0.000000000000000000 ) ) ;
#117 = ORIENTED_EDGE ( 'NONE', *, *, #49, .F. ) ;
#118 = ORIENTED_EDGE ( 'NONE', *, *, #31, .F. ) ;
#119 = CYLINDRICAL_SURFACE ( 'NONE', #42, 0.1417322834645668994 ) ;
#120 = DIRECTION ( 'NONE',  ( 0.000000000000000000, 0.000000000000000000, 1.000000000000000000 ) ) ;
#121 = STYLED_ITEM ( 'NONE', ( #185 ), #96 ) ;
#122 = DIRECTION ( 'NONE',  ( 0.000000000000000000, 0.000000000000000000, -1.000000000000000000 ) ) ;
#123 = FILL_AREA_STYLE_COLOUR ( '', #130 ) ;
#124 = DIRECTION ( 'NONE',  ( 0.000000000000000000, 0.000000000000000000, 1.000000000000000000 ) ) ;
#125 =( NAMED_UNIT ( * ) PLANE_ANGLE_UNIT ( ) SI_UNIT ( $, .RADIAN. ) );
#126 = FACE_OUTER_BOUND ( 'NONE', #261, .T. ) ;
#127 =( NAMED_UNIT ( * ) SI_UNIT ( $, .STERADIAN. ) SOLID_ANGLE_UNIT ( ) );
#128 = DIRECTION ( 'NONE',  ( 0.000000000000000000, 0.000000000000000000, -1.000000000000000000 ) ) ;
#129 = DIRECTION ( 'NONE',  ( 0.000000000000000000, -0.000000000000000000, 1.000000000000000000 ) ) ;
#130 = COLOUR_RGB ( '',0.7921568627450980005, 0.8196078431372548767, 0.9333333333333333481 ) ;
#131 = ORIENTED_EDGE ( 'NONE', *, *, #108, .F. ) ;
#132 = ADVANCED_FACE ( 'NONE', ( #166, #81 ), #205, .T. ) ;
#133 = CARTESIAN_POINT ( 'NONE',  ( 0.000000000000000000, 0.8412204724409451106, 0.04921259842519685318 ) ) ;
#134 = ORIENTED_EDGE ( 'NONE', *, *, #247, .T. ) ;
#135 = CARTESIAN_POINT ( 'NONE',  ( 0.000000000000000000, -0.6889763779521292930, 0.1417322834670340370 ) ) ;
#136 = ORIENTED_EDGE ( 'NONE', *, *, #74, .T. ) ;
#137 =( LENGTH_UNIT ( ) NAMED_UNIT ( * ) SI_UNIT ( $, .METRE. ) );
#138 = ADVANCED_FACE ( 'NONE', ( #64, #143 ), #266, .T. ) ;
#139 = ORIENTED_EDGE ( 'NONE', *, *, #190, .T. ) ;
#140 = ADVANCED_BREP_SHAPE_REPRESENTATION ( 'SP080A-L', ( #96, #24 ), #214 ) ;
#141 = FACE_OUTER_BOUND ( 'NONE', #271, .T. ) ;
#142 = DIRECTION ( 'NONE',  ( 0.000000000000000000, 0.000000000000000000, -1.000000000000000000 ) ) ;
#143 = FACE_OUTER_BOUND ( 'NONE', #93, .T. ) ;
#144 = CIRCLE ( 'NONE', #71, 0.1417322834645668994 ) ;
#145 = ADVANCED_FACE ( 'NONE', ( #90 ), #150, .T. ) ;
#146 = SURFACE_SIDE_STYLE ('',( #84 ) ) ;
#147 = DIRECTION ( 'NONE',  ( 0.000000000000000000, -1.000000000000000000, 0.000000000000000000 ) ) ;
#148 = AXIS2_PLACEMENT_3D ( 'NONE', #15, #62, #245 ) ;
#149 = DIRECTION ( 'NONE',  ( 0.000000000000000000, -1.000000000000000000, 0.000000000000000000 ) ) ;
#150 = PLANE ( 'NONE',  #222 ) ;
#151 = CARTESIAN_POINT ( 'NONE',  ( 0.000000000000000000, -0.6889763779527560139, 0.000000000000000000 ) ) ;
#152 = VERTEX_POINT ( 'NONE', #154 ) ;
#153 = AXIS2_PLACEMENT_3D ( 'NONE', #264, #227, #122 ) ;
#154 = CARTESIAN_POINT ( 'NONE',  ( 0.000000000000000000, 0.6732283464566929387, -0.1574803149606299191 ) ) ;
#155 = CONICAL_SURFACE ( 'NONE', #83, 0.1574803149591439411, 0.7853981633974482790 ) ;
#156 = DIRECTION ( 'NONE',  ( 0.000000000000000000, 0.000000000000000000, -1.000000000000000000 ) ) ;
#157 = PRODUCT_DEFINITION_SHAPE ( 'NONE', 'NONE',  #65 ) ;
#158 = EDGE_LOOP ( 'NONE', ( #51 ) ) ;
#159 = EDGE_CURVE ( 'NONE', #114, #114, #98, .T. ) ;
#160 = FACE_OUTER_BOUND ( 'NONE', #256, .T. ) ;
#161 = DIRECTION ( 'NONE',  ( -0.000000000000000000, 1.000000000000000000, 0.000000000000000000 ) ) ;
#162 = CARTESIAN_POINT ( 'NONE',  ( 0.000000000000000000, 0.6889763779527560139, 0.000000000000000000 ) ) ;
#163 = DIRECTION ( 'NONE',  ( 0.000000000000000000, -1.000000000000000000, 0.000000000000000000 ) ) ;
#164 = CARTESIAN_POINT ( 'NONE',  ( 0.000000000000000000, 0.000000000000000000, 0.000000000000000000 ) ) ;
#165 = CARTESIAN_POINT ( 'NONE',  ( 0.000000000000000000, 0.6889763779521292930, -0.1417322834647961050 ) ) ;
#166 = FACE_OUTER_BOUND ( 'NONE', #220, .T. ) ;
#167 = CIRCLE ( 'NONE', #250, 0.004212598425196854846 ) ;
#168 = FACE_OUTER_BOUND ( 'NONE', #100, .T. ) ;
#169 = APPLICATION_CONTEXT ( 'automotive_design' ) ;
#170 = DIRECTION ( 'NONE',  ( 0.000000000000000000, 0.000000000000000000, 1.000000000000000000 ) ) ;
#171 = ORIENTED_EDGE ( 'NONE', *, *, #108, .T. ) ;
#172 = DIRECTION ( 'NONE',  ( 0.000000000000000000, -1.000000000000000000, 0.000000000000000000 ) ) ;
#173 = ADVANCED_FACE ( 'NONE', ( #40, #46 ), #36, .T. ) ;
#174 = ORIENTED_EDGE ( 'NONE', *, *, #232, .T. ) ;
#175 = AXIS2_PLACEMENT_3D ( 'NONE', #269, #189, #187 ) ;
#176 = AXIS2_PLACEMENT_3D ( 'NONE', #105, #21, #129 ) ;
#177 = DIRECTION ( 'NONE',  ( 0.000000000000000000, 0.000000000000000000, -1.000000000000000000 ) ) ;
#178 = DIRECTION ( 'NONE',  ( -0.000000000000000000, -1.000000000000000000, -0.000000000000000000 ) ) ;
#179 = EDGE_CURVE ( 'NONE', #193, #193, #186, .T. ) ;
#180 =( NAMED_UNIT ( * ) SI_UNIT ( $, .STERADIAN. ) SOLID_ANGLE_UNIT ( ) );
#181 =( NAMED_UNIT ( * ) PLANE_ANGLE_UNIT ( ) SI_UNIT ( $, .RADIAN. ) );
#182 = DIRECTION ( 'NONE',  ( 0.000000000000000000, 1.000000000000000000, 0.000000000000000000 ) ) ;
#183 = VERTEX_POINT ( 'NONE', #263 ) ;
#184 = CARTESIAN_POINT ( 'NONE',  ( 0.000000000000000000, -1.097086614173228725, 0.000000000000000000 ) ) ;
#185 = PRESENTATION_STYLE_ASSIGNMENT (( #19 ) ) ;
#186 = CIRCLE ( 'NONE', #258, 0.1259842519682103368 ) ;
#187 = DIRECTION ( 'NONE',  ( 0.000000000000000000, 0.000000000000000000, 1.000000000000000000 ) ) ;
#188 = AXIS2_PLACEMENT_3D ( 'NONE', #55, #172, #142 ) ;
#189 = DIRECTION ( 'NONE',  ( 0.000000000000000000, 1.000000000000000000, 0.000000000000000000 ) ) ;
#190 = EDGE_CURVE ( 'NONE', #25, #25, #52, .T. ) ;
#191 = EDGE_LOOP ( 'NONE', ( #118 ) ) ;
#192 = EDGE_LOOP ( 'NONE', ( #254 ) ) ;
#193 = VERTEX_POINT ( 'NONE', #1 ) ;
#194 = PRODUCT ( 'SP080A-L', 'SP080A-L', '', ( #206 ) ) ;
#195 = EDGE_LOOP ( 'NONE', ( #73 ) ) ;
#196 = AXIS2_PLACEMENT_3D ( 'NONE', #221, #197, #7 ) ;
#197 = DIRECTION ( 'NONE',  ( -0.000000000000000000, -1.000000000000000000, -0.000000000000000000 ) ) ;
#198 = ADVANCED_FACE ( 'NONE', ( #45, #126 ), #230, .T. ) ;
#199 = DIMENSIONAL_EXPONENTS ( 1.000000000000000000, 0.000000000000000000, 0.000000000000000000, 0.000000000000000000, 0.000000000000000000, 0.000000000000000000, 0.000000000000000000 ) ;
#200 = EDGE_LOOP ( 'NONE', ( #240 ) ) ;
#201 = AXIS2_PLACEMENT_3D ( 'NONE', #17, #248, #66 ) ;
#202 = EDGE_LOOP ( 'NONE', ( #94 ) ) ;
#203 = DIRECTION ( 'NONE',  ( 0.000000000000000000, 1.000000000000000000, 0.000000000000000000 ) ) ;
#204 =( LENGTH_UNIT ( ) NAMED_UNIT ( * ) SI_UNIT ( $, .METRE. ) );
#205 = PLANE ( 'NONE',  #148 ) ;
#206 = PRODUCT_CONTEXT ( 'NONE', #169, 'mechanical' ) ;
#207 = DIRECTION ( 'NONE',  ( 0.000000000000000000, 0.000000000000000000, -1.000000000000000000 ) ) ;
#208 = ADVANCED_FACE ( 'NONE', ( #235 ), #252, .T. ) ;
#209 = DIRECTION ( 'NONE',  ( 0.000000000000000000, 0.000000000000000000, -1.000000000000000000 ) ) ;
#210 = CARTESIAN_POINT ( 'NONE',  ( 0.000000000000000000, 0.8862204724409450396, 0.000000000000000000 ) ) ;
#211 = PLANE ( 'NONE',  #176 ) ;
#212 = AXIS2_PLACEMENT_3D ( 'NONE', #87, #104, #120 ) ;
#213 = EDGE_LOOP ( 'NONE', ( #99 ) ) ;
#214 =( GEOMETRIC_REPRESENTATION_CONTEXT ( 3 ) GLOBAL_UNCERTAINTY_ASSIGNED_CONTEXT ( ( #109 ) ) GLOBAL_UNIT_ASSIGNED_CONTEXT ( ( #41, #125, #127 ) ) REPRESENTATION_CONTEXT ( 'NONE', 'WORKASPACE' ) );
#215 = CIRCLE ( 'NONE', #175, 0.05905511811023623353 ) ;
#216 = EDGE_LOOP ( 'NONE', ( #238 ) ) ;
#217 = EDGE_LOOP ( 'NONE', ( #112 ) ) ;
#218 = ORIENTED_EDGE ( 'NONE', *, *, #179, .F. ) ;
#219 = APPLICATION_CONTEXT ( 'automotive_design' ) ;
#220 = EDGE_LOOP ( 'NONE', ( #218 ) ) ;
#221 = CARTESIAN_POINT ( 'NONE',  ( 0.000000000000000000, 0.8412204724409451106, 0.000000000000000000 ) ) ;
#222 = AXIS2_PLACEMENT_3D ( 'NONE', #106, #224, #79 ) ;
#223 = DIRECTION ( 'NONE',  ( -0.000000000000000000, -1.000000000000000000, -0.000000000000000000 ) ) ;
#224 = DIRECTION ( 'NONE',  ( 0.000000000000000000, 1.000000000000000000, 0.000000000000000000 ) ) ;
#225 = AXIS2_PLACEMENT_3D ( 'NONE', #162, #223, #209 ) ;
#226 = ADVANCED_FACE ( 'NONE', ( #18, #47 ), #211, .F. ) ;
#227 = DIRECTION ( 'NONE',  ( 0.000000000000000000, -1.000000000000000000, 0.000000000000000000 ) ) ;
#228 = DIRECTION ( 'NONE',  ( 0.000000000000000000, 0.000000000000000000, 1.000000000000000000 ) ) ;
#229 = CARTESIAN_POINT ( 'NONE',  ( 0.000000000000000000, -0.6732283464566930498, 0.000000000000000000 ) ) ;
#230 = CYLINDRICAL_SURFACE ( 'NONE', #107, 0.05905511811023623353 ) ;
#231 = LENGTH_MEASURE_WITH_UNIT ( LENGTH_MEASURE( 0.02539999999999999897 ), #137 );
#232 = EDGE_CURVE ( 'NONE', #4, #4, #167, .T. ) ;
#233 = DIRECTION ( 'NONE',  ( 0.000000000000000000, 0.000000000000000000, -1.000000000000000000 ) ) ;
#234 = CIRCLE ( 'NONE', #196, 0.04921259842519685318 ) ;
#235 = FACE_OUTER_BOUND ( 'NONE', #5, .T. ) ;
#236 = CONICAL_SURFACE ( 'NONE', #10, 0.1574803149546680769, 0.7853981633974482790 ) ;
#237 = CARTESIAN_POINT ( 'NONE',  ( 0.000000000000000000, -0.6889763779527560139, 0.05905511811023623353 ) ) ;
#238 = ORIENTED_EDGE ( 'NONE', *, *, #31, .T. ) ;
#239 = ORIENTED_EDGE ( 'NONE', *, *, #49, .T. ) ;
#240 = ORIENTED_EDGE ( 'NONE', *, *, #179, .T. ) ;
#241 = VERTEX_POINT ( 'NONE', #60 ) ;
#242 = ADVANCED_FACE ( 'NONE', ( #77, #168 ), #236, .T. ) ;
#243 = DIRECTION ( 'NONE',  ( -0.000000000000000000, -1.000000000000000000, -0.000000000000000000 ) ) ;
#244 = ORIENTED_EDGE ( 'NONE', *, *, #74, .F. ) ;
#245 = DIRECTION ( 'NONE',  ( 0.000000000000000000, -0.000000000000000000, 1.000000000000000000 ) ) ;
#246 = CIRCLE ( 'NONE', #188, 0.1417322834647961050 ) ;
#247 = EDGE_CURVE ( 'NONE', #241, #241, #215, .T. ) ;
#248 = DIRECTION ( 'NONE',  ( 0.000000000000000000, 1.000000000000000000, 0.000000000000000000 ) ) ;
#249 = VERTEX_POINT ( 'NONE', #54 ) ;
#250 = AXIS2_PLACEMENT_3D ( 'NONE', #210, #203, #265 ) ;
#251 = LENGTH_MEASURE_WITH_UNIT ( LENGTH_MEASURE( 0.02539999999999999897 ), #204 );
#252 = PLANE ( 'NONE',  #67 ) ;
#253 = CIRCLE ( 'NONE', #26, 0.1574803149606299191 ) ;
#254 = ORIENTED_EDGE ( 'NONE', *, *, #190, .F. ) ;
#255 = CIRCLE ( 'NONE', #212, 0.1417322834670340370 ) ;
#256 = EDGE_LOOP ( 'NONE', ( #171 ) ) ;
#257 = CARTESIAN_POINT ( 'NONE',  ( 0.000000000000000000, 0.7677165354330710567, 0.000000000000000000 ) ) ;
#258 = AXIS2_PLACEMENT_3D ( 'NONE', #262, #147, #69 ) ;
#259 = ADVANCED_FACE ( 'NONE', ( #92, #141 ), #119, .T. ) ;
#260 = FACE_OUTER_BOUND ( 'NONE', #195, .T. ) ;
#261 = EDGE_LOOP ( 'NONE', ( #134 ) ) ;
#262 = CARTESIAN_POINT ( 'NONE',  ( 0.000000000000000000, 0.7677165354328202573, 0.000000000000000000 ) ) ;
#263 = CARTESIAN_POINT ( 'NONE',  ( 0.000000000000000000, 0.7677165354330710567, -0.04921259842519685318 ) ) ;
#264 = CARTESIAN_POINT ( 'NONE',  ( 0.000000000000000000, 0.7519685039384723657, 0.000000000000000000 ) ) ;
#265 = DIRECTION ( 'NONE',  ( 0.000000000000000000, 0.000000000000000000, 1.000000000000000000 ) ) ;
#266 = CONICAL_SURFACE ( 'NONE', #153, 0.1417322834647961050, 0.7853981634685026636 ) ;
#267 = DIRECTION ( 'NONE',  ( 0.000000000000000000, -0.000000000000000000, -1.000000000000000000 ) ) ;
#268 = CIRCLE ( 'NONE', #110, 0.04921259842519685318 ) ;
#269 = CARTESIAN_POINT ( 'NONE',  ( 0.000000000000000000, -1.097086614173228725, 0.000000000000000000 ) ) ;
#270 = PRODUCT_DEFINITION_FORMATION_WITH_SPECIFIED_SOURCE ( 'ANY', '', #194, .NOT_KNOWN. ) ;
#271 = EDGE_LOOP ( 'NONE', ( #239 ) ) ;
ENDSEC;
END-ISO-10303-21;
