ISO-10303-21;
HEADER;
FILE_DESCRIPTION (( 'STEP AP214' ),
    '1' );
FILE_NAME ('SLM-3-150.STEP',
    '2023-03-09T11:50:01',
    ( '' ),
    ( '' ),
    'SwSTEP 2.0',
    'SolidWorks 2021',
    '' );
FILE_SCHEMA (( 'AUTOMOTIVE_DESIGN' ));
ENDSEC;

DATA;
#1 = CARTESIAN_POINT ( 'NONE',  ( 3.826894855694928932E-16, 6.250000000000000000, 5.122214988120493288E-16 ) ) ;
#2 = DIRECTION ( 'NONE',  ( 1.000000000000000000, 0.000000000000000000, 0.000000000000000000 ) ) ;
#3 = APPLICATION_PROTOCOL_DEFINITION ( 'draft international standard', 'automotive_design', 1998, #273 ) ;
#4 = EDGE_CURVE ( 'NONE', #254, #254, #259, .T. ) ;
#5 = PRODUCT_DEFINITION_FORMATION_WITH_SPECIFIED_SOURCE ( 'ANY', '', #215, .NOT_KNOWN. ) ;
#6 =( NAMED_UNIT ( * ) SI_UNIT ( $, .STERADIAN. ) SOLID_ANGLE_UNIT ( ) );
#7 = STYLED_ITEM ( 'NONE', ( #168 ), #187 ) ;
#8 = EDGE_LOOP ( 'NONE', ( #89 ) ) ;
#9 =( LENGTH_UNIT ( ) NAMED_UNIT ( * ) SI_UNIT ( $, .METRE. ) );
#10 = ADVANCED_FACE ( 'NONE', ( #250, #113 ), #40, .T. ) ;
#11 = FILL_AREA_STYLE_COLOUR ( '', #35 ) ;
#12 = DIRECTION ( 'NONE',  ( -6.123031769111889989E-17, -1.000000000000000000, -6.123031769111889989E-17 ) ) ;
#13 = EDGE_LOOP ( 'NONE', ( #291 ) ) ;
#14 = AXIS2_PLACEMENT_3D ( 'NONE', #242, #34, #161 ) ;
#15 = DIRECTION ( 'NONE',  ( 0.000000000000000000, 0.000000000000000000, -1.000000000000000000 ) ) ;
#16 = FACE_BOUND ( 'NONE', #84, .T. ) ;
#17 = CARTESIAN_POINT ( 'NONE',  ( 5.418516450441120356E-16, 6.250000000000000000, 1.762646217212829828E-15 ) ) ;
#18 = FACE_OUTER_BOUND ( 'NONE', #294, .T. ) ;
#19 = VERTEX_POINT ( 'NONE', #247 ) ;
#20 = ADVANCED_FACE ( 'NONE', ( #131, #86 ), #209, .F. ) ;
#21 = APPLICATION_CONTEXT ( 'automotive_design' ) ;
#22 = FACE_OUTER_BOUND ( 'NONE', #200, .T. ) ;
#23 = DIRECTION ( 'NONE',  ( 4.228695546941040086E-35, 6.171415241596320266E-17, -1.000000000000000000 ) ) ;
#24 = EDGE_LOOP ( 'NONE', ( #77 ) ) ;
#25 = AXIS2_PLACEMENT_3D ( 'NONE', #234, #67, #135 ) ;
#26 = FILL_AREA_STYLE_COLOUR ( '', #276 ) ;
#27 = CIRCLE ( 'NONE', #115, 0.5506536160632139465 ) ;
#28 = DIRECTION ( 'NONE',  ( 0.000000000000000000, 1.000000000000000000, 0.000000000000000000 ) ) ;
#29 = DIRECTION ( 'NONE',  ( 6.123031769111889989E-17, 1.000000000000000000, 6.123031769111889989E-17 ) ) ;
#30 = CIRCLE ( 'NONE', #236, 0.4428040109922047329 ) ;
#31 = CARTESIAN_POINT ( 'NONE',  ( 3.427218329022250798E-16, 5.597257140345275772, 4.873603786292774858E-16 ) ) ;
#32 = ADVANCED_FACE ( 'NONE', ( #22, #18 ), #204, .F. ) ;
#33 = DIRECTION ( 'NONE',  ( 0.000000000000000000, 1.681137226870316775E-16, -1.000000000000000000 ) ) ;
#34 = DIRECTION ( 'NONE',  ( 6.171415241596319033E-17, 1.000000000000000000, 6.171415241596320266E-17 ) ) ;
#35 = COLOUR_RGB ( '',0.7921568627450980005, 0.8196078431372548767, 0.9333333333333333481 ) ;
#36 = EDGE_LOOP ( 'NONE', ( #143 ) ) ;
#37 = TOROIDAL_SURFACE ( 'NONE', #210, 0.5520394048390094843, 0.007500000000000001457 ) ;
#38 = DIRECTION ( 'NONE',  ( -0.000000000000000000, 1.000000000000000000, 0.000000000000000000 ) ) ;
#39 = CARTESIAN_POINT ( 'NONE',  ( 5.418516450441120356E-16, 6.250000000000000000, 0.4428040109922058987 ) ) ;
#40 = SPHERICAL_SURFACE ( 'NONE', #283, 0.5610236220472440971 ) ;
#41 = VERTEX_POINT ( 'NONE', #251 ) ;
#42 = VERTEX_POINT ( 'NONE', #105 ) ;
#43 = DIRECTION ( 'NONE',  ( -6.123031769111889989E-17, -1.000000000000000000, -6.123031769111889989E-17 ) ) ;
#44 = FACE_BOUND ( 'NONE', #133, .T. ) ;
#45 = SHAPE_DEFINITION_REPRESENTATION ( #191, #175 ) ;
#46 = PRODUCT_CONTEXT ( 'NONE', #21, 'mechanical' ) ;
#47 = ADVANCED_FACE ( 'NONE', ( #179, #271 ), #106, .T. ) ;
#48 = CIRCLE ( 'NONE', #202, 0.4428040109922041223 ) ;
#49 =( NAMED_UNIT ( * ) PLANE_ANGLE_UNIT ( ) SI_UNIT ( $, .RADIAN. ) );
#50 = DIRECTION ( 'NONE',  ( 0.000000000000000000, 0.000000000000000000, -1.000000000000000000 ) ) ;
#51 = EDGE_CURVE ( 'NONE', #205, #205, #30, .T. ) ;
#52 = DIRECTION ( 'NONE',  ( 0.000000000000000000, -1.000000000000000000, 0.000000000000000000 ) ) ;
#53 = ORIENTED_EDGE ( 'NONE', *, *, #237, .T. ) ;
#54 = CARTESIAN_POINT ( 'NONE',  ( -1.846634433487688251E-17, -0.3132381889763772853, 1.050710766793948046E-16 ) ) ;
#55 = CARTESIAN_POINT ( 'NONE',  ( 3.826894855694928932E-16, 6.250000000000000000, 5.122214988120493288E-16 ) ) ;
#56 = CARTESIAN_POINT ( 'NONE',  ( -2.109312125186180408E-17, -0.3444881889763778404, -0.4062499999999996669 ) ) ;
#57 = CIRCLE ( 'NONE', #92, 0.4687500000000000000 ) ;
#58 = EDGE_LOOP ( 'NONE', ( #171 ) ) ;
#59 = AXIS2_PLACEMENT_3D ( 'NONE', #287, #28, #265 ) ;
#60 = EDGE_LOOP ( 'NONE', ( #206 ) ) ;
#61 = CARTESIAN_POINT ( 'NONE',  ( -1.446385457270523568E-16, -2.362204724409448620, 0.000000000000000000 ) ) ;
#62 = DIRECTION ( 'NONE',  ( -6.123031769111889989E-17, -1.000000000000000000, -6.123031769111889989E-17 ) ) ;
#63 = CARTESIAN_POINT ( 'NONE',  ( 3.681706015708448814E-16, 5.998121329704580340, -0.5533271921247772118 ) ) ;
#64 = EDGE_LOOP ( 'NONE', ( #158 ) ) ;
#65 =( CONVERSION_BASED_UNIT ( 'INCH', #88 ) LENGTH_UNIT ( ) NAMED_UNIT ( #162 ) );
#66 = AXIS2_PLACEMENT_3D ( 'NONE', #221, #29, #75 ) ;
#67 = DIRECTION ( 'NONE',  ( 0.1736653641978898599, -0.9848047224084651718, 0.000000000000000000 ) ) ;
#68 = SURFACE_SIDE_STYLE ('',( #211 ) ) ;
#69 = CONICAL_SURFACE ( 'NONE', #98, 0.4062499999999997780, 0.7853981633974450594 ) ;
#70 = EDGE_CURVE ( 'NONE', #226, #226, #48, .T. ) ;
#71 = ORIENTED_EDGE ( 'NONE', *, *, #156, .T. ) ;
#72 = FACE_OUTER_BOUND ( 'NONE', #222, .T. ) ;
#73 =( GEOMETRIC_REPRESENTATION_CONTEXT ( 3 ) GLOBAL_UNCERTAINTY_ASSIGNED_CONTEXT ( ( #201 ) ) GLOBAL_UNIT_ASSIGNED_CONTEXT ( ( #93, #213, #6 ) ) REPRESENTATION_CONTEXT ( 'NONE', 'WORKASPACE' ) );
#74 = DIRECTION ( 'NONE',  ( -8.405686134351585107E-17, -1.000000000000000000, -8.405686134351587572E-17 ) ) ;
#75 = DIRECTION ( 'NONE',  ( 0.000000000000000000, -6.123031769111889989E-17, 1.000000000000000000 ) ) ;
#76 = EDGE_LOOP ( 'NONE', ( #120 ) ) ;
#77 = ORIENTED_EDGE ( 'NONE', *, *, #110, .T. ) ;
#78 = CARTESIAN_POINT ( 'NONE',  ( 1.887453141540590149E-17, 0.3082546706783365620, 1.635130771424582675E-16 ) ) ;
#79 = EDGE_LOOP ( 'NONE', ( #293 ) ) ;
#80 = SPHERICAL_SURFACE ( 'NONE', #136, 0.5610236220472440971 ) ;
#81 = CARTESIAN_POINT ( 'NONE',  ( -2.109312125186177019E-17, -0.3444881889763775074, 0.3749999999999996114 ) ) ;
#82 = VERTEX_POINT ( 'NONE', #232 ) ;
#83 = CIRCLE ( 'NONE', #241, 0.4687500000000000000 ) ;
#84 = EDGE_LOOP ( 'NONE', ( #269 ) ) ;
#85 = AXIS2_PLACEMENT_3D ( 'NONE', #149, #147, #181 ) ;
#86 = FACE_OUTER_BOUND ( 'NONE', #76, .T. ) ;
#87 = ADVANCED_FACE ( 'NONE', ( #128, #227 ), #184, .T. ) ;
#88 = LENGTH_MEASURE_WITH_UNIT ( LENGTH_MEASURE( 0.02539999999999999897 ), #229 );
#89 = ORIENTED_EDGE ( 'NONE', *, *, #194, .F. ) ;
#90 =( NAMED_UNIT ( * ) PLANE_ANGLE_UNIT ( ) SI_UNIT ( $, .RADIAN. ) );
#91 = SPHERICAL_SURFACE ( 'NONE', #96, 0.5610236220472439861 ) ;
#92 = AXIS2_PLACEMENT_3D ( 'NONE', #78, #95, #188 ) ;
#93 =( CONVERSION_BASED_UNIT ( 'INCH', #262 ) LENGTH_UNIT ( ) NAMED_UNIT ( #240 ) );
#94 = ADVANCED_FACE ( 'NONE', ( #207, #44 ), #91, .T. ) ;
#95 = DIRECTION ( 'NONE',  ( 6.123031769111889989E-17, 1.000000000000000000, 6.123031769111889989E-17 ) ) ;
#96 = AXIS2_PLACEMENT_3D ( 'NONE', #154, #284, #257 ) ;
#97 = CARTESIAN_POINT ( 'NONE',  ( -6.581489003925944221E-18, -0.1073707946036790706, 6.784131750000913932E-17 ) ) ;
#98 = AXIS2_PLACEMENT_3D ( 'NONE', #102, #159, #33 ) ;
#99 = ORIENTED_EDGE ( 'NONE', *, *, #178, .T. ) ;
#100 = FACE_BOUND ( 'NONE', #104, .T. ) ;
#101 = LENGTH_MEASURE_WITH_UNIT ( LENGTH_MEASURE( 0.02539999999999999897 ), #9 );
#102 = CARTESIAN_POINT ( 'NONE',  ( -2.109312125186181024E-17, -0.3444881889763779514, 1.024442997624098707E-16 ) ) ;
#103 = CIRCLE ( 'NONE', #139, 0.4062499999999999445 ) ;
#104 = EDGE_LOOP ( 'NONE', ( #167 ) ) ;
#105 = CARTESIAN_POINT ( 'NONE',  ( -5.670621398222155157E-18, -0.09261133392820225518, -0.5533268883065849408 ) ) ;
#106 = PLANE ( 'NONE',  #245 ) ;
#107 = DIRECTION ( 'NONE',  ( -6.123031769111889989E-17, -1.000000000000000000, -6.123031769111889989E-17 ) ) ;
#108 = ORIENTED_EDGE ( 'NONE', *, *, #237, .F. ) ;
#109 = VERTEX_POINT ( 'NONE', #272 ) ;
#110 = EDGE_CURVE ( 'NONE', #41, #41, #103, .T. ) ;
#111 = EDGE_LOOP ( 'NONE', ( #195 ) ) ;
#112 = DIRECTION ( 'NONE',  ( -6.171415241596319033E-17, -1.000000000000000000, -6.171415241596320266E-17 ) ) ;
#113 = FACE_BOUND ( 'NONE', #111, .T. ) ;
#114 = VERTEX_POINT ( 'NONE', #180 ) ;
#115 = AXIS2_PLACEMENT_3D ( 'NONE', #244, #196, #217 ) ;
#116 = FILL_AREA_STYLE ('',( #26 ) ) ;
#117 = FACE_OUTER_BOUND ( 'NONE', #36, .T. ) ;
#118 = PRESENTATION_LAYER_ASSIGNMENT (  '', '', ( #216 ) ) ;
#119 = AXIS2_PLACEMENT_3D ( 'NONE', #54, #74, #268 ) ;
#120 = ORIENTED_EDGE ( 'NONE', *, *, #110, .F. ) ;
#121 = DIRECTION ( 'NONE',  ( 0.000000000000000000, 0.000000000000000000, -1.000000000000000000 ) ) ;
#122 = PRODUCT_DEFINITION ( 'UNKNOWN', '', #5, #145 ) ;
#123 = ORIENTED_EDGE ( 'NONE', *, *, #203, .T. ) ;
#124 = SURFACE_STYLE_FILL_AREA ( #163 ) ;
#125 = AXIS2_PLACEMENT_3D ( 'NONE', #97, #239, #295 ) ;
#126 = DIRECTION ( 'NONE',  ( -6.123031769111889989E-17, -1.000000000000000000, -6.123031769111889989E-17 ) ) ;
#127 = APPLICATION_PROTOCOL_DEFINITION ( 'draft international standard', 'automotive_design', 1998, #21 ) ;
#128 = FACE_OUTER_BOUND ( 'NONE', #192, .T. ) ;
#129 = VERTEX_POINT ( 'NONE', #63 ) ;
#130 = UNCERTAINTY_MEASURE_WITH_UNIT (LENGTH_MEASURE( 1.000000000000000082E-05 ), #65, 'distance_accuracy_value', 'NONE');
#131 = FACE_BOUND ( 'NONE', #79, .T. ) ;
#132 = CARTESIAN_POINT ( 'NONE',  ( -1.064633710538700173E-16, -0.3444881889763775074, -0.4428040109922087297 ) ) ;
#133 = EDGE_LOOP ( 'NONE', ( #231 ) ) ;
#134 = CARTESIAN_POINT ( 'NONE',  ( 1.887453141540590149E-17, 0.3082546706783365620, -0.4687499999999998890 ) ) ;
#135 = DIRECTION ( 'NONE',  ( -0.9848047224084651718, -0.1736653641978898599, 0.000000000000000000 ) ) ;
#136 = AXIS2_PLACEMENT_3D ( 'NONE', #281, #278, #172 ) ;
#137 = AXIS2_PLACEMENT_3D ( 'NONE', #258, #208, #2 ) ;
#138 = ADVANCED_FACE ( 'NONE', ( #166, #72 ), #270, .T. ) ;
#139 = AXIS2_PLACEMENT_3D ( 'NONE', #1, #193, #141 ) ;
#140 = SURFACE_STYLE_USAGE ( .BOTH. , #220 ) ;
#141 = DIRECTION ( 'NONE',  ( 0.000000000000000000, 0.000000000000000000, 1.000000000000000000 ) ) ;
#142 = EDGE_CURVE ( 'NONE', #109, #109, #260, .T. ) ;
#143 = ORIENTED_EDGE ( 'NONE', *, *, #178, .F. ) ;
#144 = FACE_BOUND ( 'NONE', #233, .T. ) ;
#145 = PRODUCT_DEFINITION_CONTEXT ( 'detailed design', #273, 'design' ) ;
#146 = AXIS2_PLACEMENT_3D ( 'NONE', #264, #52, #266 ) ;
#147 = DIRECTION ( 'NONE',  ( 8.405686134351585107E-17, 1.000000000000000000, 8.405686134351586340E-17 ) ) ;
#148 = CYLINDRICAL_SURFACE ( 'NONE', #274, 0.4687500000000000000 ) ;
#149 = CARTESIAN_POINT ( 'NONE',  ( -2.109312125186180408E-17, -0.3444881889763779514, 1.024442997624098707E-16 ) ) ;
#150 = CARTESIAN_POINT ( 'NONE',  ( -1.064633710538700173E-16, -0.3444881889763775074, -4.050568911906650051E-15 ) ) ;
#151 = ADVANCED_FACE ( 'NONE', ( #223, #100 ), #69, .F. ) ;
#152 = CARTESIAN_POINT ( 'NONE',  ( -6.126606662328508469E-18, -0.1000000000000125372, 6.829619984160658046E-17 ) ) ;
#153 = DIRECTION ( 'NONE',  ( 1.000000000000000000, -6.123031769111888756E-17, 0.000000000000000000 ) ) ;
#154 = CARTESIAN_POINT ( 'NONE',  ( 5.207585237922501822E-16, 5.905511811023622215, 1.741553095960967777E-15 ) ) ;
#155 = AXIS2_PLACEMENT_3D ( 'NONE', #301, #126, #15 ) ;
#156 = EDGE_CURVE ( 'NONE', #19, #19, #83, .T. ) ;
#157 = TOROIDAL_SURFACE ( 'NONE', #263, 0.5520397328964987693, 0.007500000000000199216 ) ;
#158 = ORIENTED_EDGE ( 'NONE', *, *, #51, .T. ) ;
#159 = DIRECTION ( 'NONE',  ( -8.405686134351585107E-17, -1.000000000000000000, -8.405686134351586340E-17 ) ) ;
#160 = CIRCLE ( 'NONE', #59, 0.3750000000000002776 ) ;
#161 = DIRECTION ( 'NONE',  ( 0.000000000000000000, 6.171415241596331359E-17, -1.000000000000000000 ) ) ;
#162 = DIMENSIONAL_EXPONENTS ( 1.000000000000000000, 0.000000000000000000, 0.000000000000000000, 0.000000000000000000, 0.000000000000000000, 0.000000000000000000, 0.000000000000000000 ) ;
#163 = FILL_AREA_STYLE ('',( #11 ) ) ;
#164 = DIMENSIONAL_EXPONENTS ( 1.000000000000000000, 0.000000000000000000, 0.000000000000000000, 0.000000000000000000, 0.000000000000000000, 0.000000000000000000, 0.000000000000000000 ) ;
#165 = ORIENTED_EDGE ( 'NONE', *, *, #219, .T. ) ;
#166 = FACE_BOUND ( 'NONE', #24, .T. ) ;
#167 = ORIENTED_EDGE ( 'NONE', *, *, #142, .F. ) ;
#168 = PRESENTATION_STYLE_ASSIGNMENT (( #140 ) ) ;
#169 = CARTESIAN_POINT ( 'NONE',  ( -3.435278914931058960E-17, 3.791200677927629740E-33, -3.414809992080329023E-17 ) ) ;
#170 = CARTESIAN_POINT ( 'NONE',  ( 3.826894855694928932E-16, 6.218750000000000000, 0.3750000000000007772 ) ) ;
#171 = ORIENTED_EDGE ( 'NONE', *, *, #51, .F. ) ;
#172 = DIRECTION ( 'NONE',  ( 1.000000000000000000, 0.000000000000000000, 0.000000000000000000 ) ) ;
#173 =( GEOMETRIC_REPRESENTATION_CONTEXT ( 3 ) GLOBAL_UNCERTAINTY_ASSIGNED_CONTEXT ( ( #130 ) ) GLOBAL_UNIT_ASSIGNED_CONTEXT ( ( #65, #90, #256 ) ) REPRESENTATION_CONTEXT ( 'NONE', 'WORKASPACE' ) );
#174 = MECHANICAL_DESIGN_GEOMETRIC_PRESENTATION_REPRESENTATION (  '', ( #7 ), #224 ) ;
#175 = ADVANCED_BREP_SHAPE_REPRESENTATION ( 'SLM-3-150', ( #187, #137 ), #173 ) ;
#176 = ORIENTED_EDGE ( 'NONE', *, *, #70, .F. ) ;
#177 = FACE_OUTER_BOUND ( 'NONE', #197, .T. ) ;
#178 = EDGE_CURVE ( 'NONE', #129, #129, #183, .T. ) ;
#179 = FACE_BOUND ( 'NONE', #296, .T. ) ;
#180 = CARTESIAN_POINT ( 'NONE',  ( 3.681706015708448814E-16, 6.012880799151081312, -0.5506536160632133914 ) ) ;
#181 = DIRECTION ( 'NONE',  ( 0.000000000000000000, 1.681137226870316775E-16, -1.000000000000000000 ) ) ;
#182 = FACE_OUTER_BOUND ( 'NONE', #303, .T. ) ;
#183 = CIRCLE ( 'NONE', #146, 0.5533271921247777669 ) ;
#184 = SPHERICAL_SURFACE ( 'NONE', #25, 0.5610236220472440971 ) ;
#185 =( LENGTH_UNIT ( ) NAMED_UNIT ( * ) SI_UNIT ( $, .METRE. ) );
#186 = SURFACE_STYLE_USAGE ( .BOTH. , #68 ) ;
#187 = MANIFOLD_SOLID_BREP ( 'Imported1', #238 ) ;
#188 = DIRECTION ( 'NONE',  ( 0.000000000000000000, 0.000000000000000000, -1.000000000000000000 ) ) ;
#189 = PRESENTATION_LAYER_ASSIGNMENT (  '', '', ( #7 ) ) ;
#190 = CARTESIAN_POINT ( 'NONE',  ( 3.681706015708448814E-16, 6.005510000000074733, 5.463695987328526437E-16 ) ) ;
#191 = PRODUCT_DEFINITION_SHAPE ( 'NONE', 'NONE',  #122 ) ;
#192 = EDGE_LOOP ( 'NONE', ( #53 ) ) ;
#193 = DIRECTION ( 'NONE',  ( 0.000000000000000000, -1.000000000000000000, -0.000000000000000000 ) ) ;
#194 = EDGE_CURVE ( 'NONE', #114, #114, #27, .T. ) ;
#195 = ORIENTED_EDGE ( 'NONE', *, *, #212, .F. ) ;
#196 = DIRECTION ( 'NONE',  ( -0.000000000000000000, 1.000000000000000000, -0.000000000000000000 ) ) ;
#197 = EDGE_LOOP ( 'NONE', ( #108 ) ) ;
#198 = EDGE_LOOP ( 'NONE', ( #71 ) ) ;
#199 = FACE_OUTER_BOUND ( 'NONE', #198, .T. ) ;
#200 = EDGE_LOOP ( 'NONE', ( #165 ) ) ;
#201 = UNCERTAINTY_MEASURE_WITH_UNIT (LENGTH_MEASURE( 1.000000000000000082E-05 ), #93, 'distance_accuracy_value', 'NONE');
#202 = AXIS2_PLACEMENT_3D ( 'NONE', #17, #43, #275 ) ;
#203 = EDGE_CURVE ( 'NONE', #42, #42, #288, .T. ) ;
#204 = CYLINDRICAL_SURFACE ( 'NONE', #155, 0.3749999999999992784 ) ;
#205 = VERTEX_POINT ( 'NONE', #132 ) ;
#206 = ORIENTED_EDGE ( 'NONE', *, *, #203, .F. ) ;
#207 = FACE_OUTER_BOUND ( 'NONE', #13, .T. ) ;
#208 = DIRECTION ( 'NONE',  ( 0.000000000000000000, 0.000000000000000000, 1.000000000000000000 ) ) ;
#209 = CONICAL_SURFACE ( 'NONE', #218, 0.4062499999999999445, 0.7853981633974396193 ) ;
#210 = AXIS2_PLACEMENT_3D ( 'NONE', #152, #112, #23 ) ;
#211 = SURFACE_STYLE_FILL_AREA ( #116 ) ;
#212 = EDGE_CURVE ( 'NONE', #300, #300, #57, .T. ) ;
#213 =( NAMED_UNIT ( * ) PLANE_ANGLE_UNIT ( ) SI_UNIT ( $, .RADIAN. ) );
#214 = FACE_OUTER_BOUND ( 'NONE', #8, .T. ) ;
#215 = PRODUCT ( 'SLM-3-150', 'SLM-3-150', '', ( #46 ) ) ;
#216 = STYLED_ITEM ( 'NONE', ( #286 ), #175 ) ;
#217 = DIRECTION ( 'NONE',  ( 0.000000000000000000, 0.000000000000000000, -1.000000000000000000 ) ) ;
#218 = AXIS2_PLACEMENT_3D ( 'NONE', #55, #38, #230 ) ;
#219 = EDGE_CURVE ( 'NONE', #302, #302, #160, .T. ) ;
#220 = SURFACE_SIDE_STYLE ('',( #124 ) ) ;
#221 = CARTESIAN_POINT ( 'NONE',  ( 3.826894855694928932E-16, 6.250000000000000000, 0.3749999999999996114 ) ) ;
#222 = EDGE_LOOP ( 'NONE', ( #176 ) ) ;
#223 = FACE_OUTER_BOUND ( 'NONE', #280, .T. ) ;
#224 =( GEOMETRIC_REPRESENTATION_CONTEXT ( 3 ) GLOBAL_UNCERTAINTY_ASSIGNED_CONTEXT ( ( #279 ) ) GLOBAL_UNIT_ASSIGNED_CONTEXT ( ( #290, #49, #292 ) ) REPRESENTATION_CONTEXT ( 'NONE', 'WORKASPACE' ) );
#225 = EDGE_LOOP ( 'NONE', ( #123 ) ) ;
#226 = VERTEX_POINT ( 'NONE', #39 ) ;
#227 = FACE_BOUND ( 'NONE', #64, .T. ) ;
#228 = ADVANCED_FACE ( 'NONE', ( #117, #214 ), #157, .F. ) ;
#229 =( LENGTH_UNIT ( ) NAMED_UNIT ( * ) SI_UNIT ( $, .METRE. ) );
#230 = DIRECTION ( 'NONE',  ( 0.000000000000000000, 0.000000000000000000, 1.000000000000000000 ) ) ;
#231 = ORIENTED_EDGE ( 'NONE', *, *, #70, .T. ) ;
#232 = CARTESIAN_POINT ( 'NONE',  ( -6.581489003925944221E-18, -0.1073707946036790428, -0.5506532638250573042 ) ) ;
#233 = EDGE_LOOP ( 'NONE', ( #99 ) ) ;
#234 = CARTESIAN_POINT ( 'NONE',  ( -8.537024980200822558E-17, -1.814117808292674871E-17, -4.029475790654788592E-15 ) ) ;
#235 = CIRCLE ( 'NONE', #125, 0.5506532638250573042 ) ;
#236 = AXIS2_PLACEMENT_3D ( 'NONE', #150, #255, #253 ) ;
#237 = EDGE_CURVE ( 'NONE', #82, #82, #235, .T. ) ;
#238 = CLOSED_SHELL ( 'NONE', ( #261, #285, #10, #228, #252, #94, #87, #138, #47, #20, #151, #32 ) ) ;
#239 = DIRECTION ( 'NONE',  ( -6.171415241596319033E-17, -1.000000000000000000, -6.171415241596320266E-17 ) ) ;
#240 = DIMENSIONAL_EXPONENTS ( 1.000000000000000000, 0.000000000000000000, 0.000000000000000000, 0.000000000000000000, 0.000000000000000000, 0.000000000000000000, 0.000000000000000000 ) ;
#241 = AXIS2_PLACEMENT_3D ( 'NONE', #31, #12, #121 ) ;
#242 = CARTESIAN_POINT ( 'NONE',  ( -5.670621398222155157E-18, -0.09261133392820229682, 6.875218510571292915E-17 ) ) ;
#243 = ORIENTED_EDGE ( 'NONE', *, *, #4, .F. ) ;
#244 = CARTESIAN_POINT ( 'NONE',  ( 3.681706015708448814E-16, 6.012880799151081312, 5.463695987328526437E-16 ) ) ;
#245 = AXIS2_PLACEMENT_3D ( 'NONE', #81, #62, #282 ) ;
#246 = ORIENTED_EDGE ( 'NONE', *, *, #4, .T. ) ;
#247 = CARTESIAN_POINT ( 'NONE',  ( 3.427218329022250798E-16, 5.597257140345275772, -0.4687499999999995559 ) ) ;
#248 = DIRECTION ( 'NONE',  ( 6.123031769111888756E-17, 1.000000000000000000, 0.000000000000000000 ) ) ;
#249 = DIRECTION ( 'NONE',  ( 0.000000000000000000, 0.000000000000000000, -1.000000000000000000 ) ) ;
#250 = FACE_BOUND ( 'NONE', #225, .T. ) ;
#251 = CARTESIAN_POINT ( 'NONE',  ( 3.826894855694928932E-16, 6.250000000000000000, 0.4062500000000004996 ) ) ;
#252 = ADVANCED_FACE ( 'NONE', ( #177, #297 ), #37, .F. ) ;
#253 = DIRECTION ( 'NONE',  ( 0.000000000000000000, 0.000000000000000000, -1.000000000000000000 ) ) ;
#254 = VERTEX_POINT ( 'NONE', #56 ) ;
#255 = DIRECTION ( 'NONE',  ( 6.123031769111889989E-17, 1.000000000000000000, 6.123031769111889989E-17 ) ) ;
#256 =( NAMED_UNIT ( * ) SI_UNIT ( $, .STERADIAN. ) SOLID_ANGLE_UNIT ( ) );
#257 = DIRECTION ( 'NONE',  ( 0.9846620336168669940, 0.1744725753621347852, 8.419550413695529390E-17 ) ) ;
#258 = CARTESIAN_POINT ( 'NONE',  ( 0.000000000000000000, 0.000000000000000000, 0.000000000000000000 ) ) ;
#259 = CIRCLE ( 'NONE', #85, 0.4062499999999997780 ) ;
#260 = CIRCLE ( 'NONE', #119, 0.3749999999999993339 ) ;
#261 = ADVANCED_FACE ( 'NONE', ( #199, #182 ), #148, .T. ) ;
#262 = LENGTH_MEASURE_WITH_UNIT ( LENGTH_MEASURE( 0.02539999999999999897 ), #185 );
#263 = AXIS2_PLACEMENT_3D ( 'NONE', #190, #289, #50 ) ;
#264 = CARTESIAN_POINT ( 'NONE',  ( 3.681706015708448814E-16, 5.998121329704580340, 5.463695987328526437E-16 ) ) ;
#265 = DIRECTION ( 'NONE',  ( 0.000000000000000000, 0.000000000000000000, 1.000000000000000000 ) ) ;
#266 = DIRECTION ( 'NONE',  ( 0.000000000000000000, 0.000000000000000000, -1.000000000000000000 ) ) ;
#267 = PRODUCT_RELATED_PRODUCT_CATEGORY ( 'part', '', ( #215 ) ) ;
#268 = DIRECTION ( 'NONE',  ( -2.021973694894739419E-32, 0.000000000000000000, -1.000000000000000000 ) ) ;
#269 = ORIENTED_EDGE ( 'NONE', *, *, #156, .F. ) ;
#270 = PLANE ( 'NONE',  #66 ) ;
#271 = FACE_OUTER_BOUND ( 'NONE', #58, .T. ) ;
#272 = CARTESIAN_POINT ( 'NONE',  ( -1.846634433487688867E-17, -0.3132381889763772853, -0.3749999999999992228 ) ) ;
#273 = APPLICATION_CONTEXT ( 'automotive_design' ) ;
#274 = AXIS2_PLACEMENT_3D ( 'NONE', #61, #107, #249 ) ;
#275 = DIRECTION ( 'NONE',  ( 0.000000000000000000, 0.000000000000000000, 1.000000000000000000 ) ) ;
#276 = COLOUR_RGB ( '',0.7921568627450980005, 0.8196078431372548767, 0.9333333333333333481 ) ;
#277 = ORIENTED_EDGE ( 'NONE', *, *, #142, .T. ) ;
#278 = DIRECTION ( 'NONE',  ( 0.000000000000000000, 1.000000000000000000, -0.000000000000000000 ) ) ;
#279 = UNCERTAINTY_MEASURE_WITH_UNIT (LENGTH_MEASURE( 1.000000000000000082E-05 ), #290, 'distance_accuracy_value', 'NONE');
#280 = EDGE_LOOP ( 'NONE', ( #243 ) ) ;
#281 = CARTESIAN_POINT ( 'NONE',  ( 3.272435751683205488E-16, 5.905511811023622215, -3.414809992080329023E-17 ) ) ;
#282 = DIRECTION ( 'NONE',  ( 0.000000000000000000, 6.123031769111889989E-17, -1.000000000000000000 ) ) ;
#283 = AXIS2_PLACEMENT_3D ( 'NONE', #169, #248, #153 ) ;
#284 = DIRECTION ( 'NONE',  ( -0.1744725753621347852, 0.9846620336168669940, 4.763107430028401629E-16 ) ) ;
#285 = ADVANCED_FACE ( 'NONE', ( #144, #16 ), #80, .T. ) ;
#286 = PRESENTATION_STYLE_ASSIGNMENT (( #186 ) ) ;
#287 = CARTESIAN_POINT ( 'NONE',  ( 3.826894855694928932E-16, 6.218750000000000000, 5.122214988120493288E-16 ) ) ;
#288 = CIRCLE ( 'NONE', #14, 0.5533268883065849408 ) ;
#289 = DIRECTION ( 'NONE',  ( 0.000000000000000000, -1.000000000000000000, 0.000000000000000000 ) ) ;
#290 =( CONVERSION_BASED_UNIT ( 'INCH', #101 ) LENGTH_UNIT ( ) NAMED_UNIT ( #164 ) );
#291 = ORIENTED_EDGE ( 'NONE', *, *, #194, .T. ) ;
#292 =( NAMED_UNIT ( * ) SI_UNIT ( $, .STERADIAN. ) SOLID_ANGLE_UNIT ( ) );
#293 = ORIENTED_EDGE ( 'NONE', *, *, #219, .F. ) ;
#294 = EDGE_LOOP ( 'NONE', ( #277 ) ) ;
#295 = DIRECTION ( 'NONE',  ( 0.000000000000000000, 6.201379736423781720E-17, -1.000000000000000000 ) ) ;
#296 = EDGE_LOOP ( 'NONE', ( #246 ) ) ;
#297 = FACE_OUTER_BOUND ( 'NONE', #60, .T. ) ;
#298 = MECHANICAL_DESIGN_GEOMETRIC_PRESENTATION_REPRESENTATION (  '', ( #216 ), #73 ) ;
#299 = ORIENTED_EDGE ( 'NONE', *, *, #212, .T. ) ;
#300 = VERTEX_POINT ( 'NONE', #134 ) ;
#301 = CARTESIAN_POINT ( 'NONE',  ( -1.446385457270523568E-16, -2.362204724409448620, 0.000000000000000000 ) ) ;
#302 = VERTEX_POINT ( 'NONE', #170 ) ;
#303 = EDGE_LOOP ( 'NONE', ( #299 ) ) ;
ENDSEC;
END-ISO-10303-21;
