ISO-10303-21;
HEADER;
FILE_DESCRIPTION (( 'STEP AP214' ),
    '1' );
FILE_NAME ('RTP-0160-020.STEP',
    '2022-01-20T16:04:45',
    ( '' ),
    ( '' ),
    'SwSTEP 2.0',
    'SolidWorks 2021',
    '' );
FILE_SCHEMA (( 'AUTOMOTIVE_DESIGN' ));
ENDSEC;

DATA;
#1 =( CONVERSION_BASED_UNIT ( 'INCH', #250 ) LENGTH_UNIT ( ) NAMED_UNIT ( #202 ) );
#2 = FACE_OUTER_BOUND ( 'NONE', #239, .T. ) ;
#3 = CLOSED_SHELL ( 'NONE', ( #173, #118, #234, #185, #18, #223 ) ) ;
#4 = CARTESIAN_POINT ( 'NONE',  ( 0.3149606299212598937, -1.585967883100614337E-16, 0.07804067114305633657 ) ) ;
#5 = CARTESIAN_POINT ( 'NONE',  ( 0.2657480314960630197, -4.385896583578173013E-17, -8.537024980200822558E-18 ) ) ;
#6 = EDGE_CURVE ( 'NONE', #187, #225, #20, .T. ) ;
#7 = CARTESIAN_POINT ( 'NONE',  ( -0.2657480314960630197, -0.5314960629921253732, -1.707404996040164512E-17 ) ) ;
#8 = CARTESIAN_POINT ( 'NONE',  ( 0.2657480314960630197, -2.024875612491382822E-17, 0.09842519685039372024 ) ) ;
#9 = CARTESIAN_POINT ( 'NONE',  ( -0.3149606299212598937, 3.187983305760200980E-16, 0.07804067114305633657 ) ) ;
#10 = VERTEX_POINT ( 'NONE', #19 ) ;
#11 = FACE_OUTER_BOUND ( 'NONE', #56, .T. ) ;
#12 = ORIENTED_EDGE ( 'NONE', *, *, #130, .T. ) ;
#13 = DIRECTION ( 'NONE',  ( 0.000000000000000000, 0.000000000000000000, 1.000000000000000000 ) ) ;
#14 = CARTESIAN_POINT ( 'NONE',  ( 0.3149606299212598937, 0.6299212598425192322, 0.04921259842519684624 ) ) ;
#15 =( NAMED_UNIT ( * ) PLANE_ANGLE_UNIT ( ) SI_UNIT ( $, .RADIAN. ) );
#16 = SURFACE_SIDE_STYLE ('',( #38 ) ) ;
#17 = ORIENTED_EDGE ( 'NONE', *, *, #94, .T. ) ;
#18 = ADVANCED_FACE ( 'NONE', ( #2 ), #40, .T. ) ;
#19 = CARTESIAN_POINT ( 'NONE',  ( 0.3149606299212598381, -8.803807010832099226E-20, 0.04921259842519685318 ) ) ;
#20 =( BOUNDED_CURVE ( )  B_SPLINE_CURVE ( 3, ( #126, #210, #167, #93 ),
 .UNSPECIFIED., .F., .F. ) 
 B_SPLINE_CURVE_WITH_KNOTS ( ( 4, 4 ),
 ( 0.000000000000000000, 1.000000000000000000 ),
 .UNSPECIFIED. ) 
 CURVE ( )  GEOMETRIC_REPRESENTATION_ITEM ( )  RATIONAL_B_SPLINE_CURVE ( ( 1.000000000000000000, 0.3333333333333337034, 0.3333333333333337034, 1.000000000000000000 ) ) 
 REPRESENTATION_ITEM ( '' )  );
#21 =( GEOMETRIC_REPRESENTATION_CONTEXT ( 3 ) GLOBAL_UNCERTAINTY_ASSIGNED_CONTEXT ( ( #85 ) ) GLOBAL_UNIT_ASSIGNED_CONTEXT ( ( #209, #76, #135 ) ) REPRESENTATION_CONTEXT ( 'NONE', 'WORKASPACE' ) );
#22 = CARTESIAN_POINT ( 'NONE',  ( -0.2945761042139228292, -0.5891522084278447702, -1.530883961142595395E-17 ) ) ;
#23 = CARTESIAN_POINT ( 'NONE',  ( 0.2657480314960630752, -1.337885282397054977E-16, 0.09842519685039372024 ) ) ;
#24 = CARTESIAN_POINT ( 'NONE',  ( -0.2657480314960630197, 6.400100914844303843E-17, -8.537024980200822558E-18 ) ) ;
#25 =( GEOMETRIC_REPRESENTATION_CONTEXT ( 3 ) GLOBAL_UNCERTAINTY_ASSIGNED_CONTEXT ( ( #52 ) ) GLOBAL_UNIT_ASSIGNED_CONTEXT ( ( #54, #179, #197 ) ) REPRESENTATION_CONTEXT ( 'NONE', 'WORKASPACE' ) );
#26 = FACE_OUTER_BOUND ( 'NONE', #122, .T. ) ;
#27 = CARTESIAN_POINT ( 'NONE',  ( -0.2945761042139228292, -0.5891522084278447702, 0.09842519685039369248 ) ) ;
#28 = CARTESIAN_POINT ( 'NONE',  ( -0.3149606299212598937, 1.200252355810109661E-16, 0.07804067114305633657 ) ) ;
#29 = CARTESIAN_POINT ( 'NONE',  ( 0.000000000000000000, 0.000000000000000000, 0.000000000000000000 ) ) ;
#30 = CARTESIAN_POINT ( 'NONE',  ( 0.3149606299212599492, -4.855432957489218215E-19, 0.04921259842519685318 ) ) ;
#31 = ORIENTED_EDGE ( 'NONE', *, *, #198, .F. ) ;
#32 = CARTESIAN_POINT ( 'NONE',  ( -0.2945761042139219410, 0.5891522084278446592, -1.530883961142595704E-17 ) ) ;
#33 = ORIENTED_EDGE ( 'NONE', *, *, #130, .F. ) ;
#34 = AXIS2_PLACEMENT_3D ( 'NONE', #79, #192, #216 ) ;
#35 = APPLICATION_CONTEXT ( 'automotive_design' ) ;
#36 = CARTESIAN_POINT ( 'NONE',  ( 0.2945761042139222741, -0.5891522084278451032, -1.530883961142595395E-17 ) ) ;
#37 = COLOUR_RGB ( '',0.7921568627450980005, 0.8196078431372548767, 0.9333333333333333481 ) ;
#38 = SURFACE_STYLE_FILL_AREA ( #131 ) ;
#39 = CARTESIAN_POINT ( 'NONE',  ( -0.2657480314960624090, 0.5314960629921255952, -1.707404996040164512E-17 ) ) ;
#40 =( BOUNDED_SURFACE ( )  B_SPLINE_SURFACE ( 3, 3, ( 
 ( #90, #110, #188, #106 ),
 ( #91, #168, #104, #206 ),
 ( #89, #22, #36, #251 ),
 ( #151, #59, #74, #128 ) ),
 .UNSPECIFIED., .F., .F., .F. ) 
 B_SPLINE_SURFACE_WITH_KNOTS ( ( 4, 4 ),
 ( 4, 4 ),
 ( 0.000000000000000000, 1.000000000000000000 ),
 ( 0.000000000000000000, 1.000000000000000000 ),
 .UNSPECIFIED. ) 
 GEOMETRIC_REPRESENTATION_ITEM ( )  RATIONAL_B_SPLINE_SURFACE ( (
 ( 1.000000000000000000, 0.3333333333333334259, 0.3333333333333334259, 1.000000000000000000),
 ( 0.8047378541243649375, 0.2682459513747884050, 0.2682459513747884050, 0.8047378541243649375),
 ( 0.8047378541243649375, 0.2682459513747884050, 0.2682459513747884050, 0.8047378541243649375),
 ( 1.000000000000000000, 0.3333333333333334259, 0.3333333333333334259, 1.000000000000000000) ) ) 
 REPRESENTATION_ITEM ( '' )  SURFACE ( )  );
#41 = PRODUCT_DEFINITION_SHAPE ( 'NONE', 'NONE',  #240 ) ;
#42 = PRODUCT_RELATED_PRODUCT_CATEGORY ( 'part', '', ( #78 ) ) ;
#43 = CARTESIAN_POINT ( 'NONE',  ( 0.2945761042139225516, 0.5891522084278444371, 0.09842519685039374799 ) ) ;
#44 = STYLED_ITEM ( 'NONE', ( #147 ), #92 ) ;
#45 = CARTESIAN_POINT ( 'NONE',  ( -0.3149606299212602267, -0.6299212598425195653, 0.04921259842519686012 ) ) ;
#46 = PRODUCT_DEFINITION_FORMATION_WITH_SPECIFIED_SOURCE ( 'ANY', '', #78, .NOT_KNOWN. ) ;
#47 = DIRECTION ( 'NONE',  ( 1.000000000000000000, -8.673617379884035472E-19, 0.000000000000000000 ) ) ;
#48 = CARTESIAN_POINT ( 'NONE',  ( -0.3149606299212592830, 0.6299212598425193432, 0.04921259842519684624 ) ) ;
#49 = CARTESIAN_POINT ( 'NONE',  ( 0.000000000000000000, 0.000000000000000000, 0.09842519685039370636 ) ) ;
#50 = AXIS2_PLACEMENT_3D ( 'NONE', #238, #13, #243 ) ;
#51 = CARTESIAN_POINT ( 'NONE',  ( -0.3149606299212592830, 0.6299212598425193432, 0.04921259842519684624 ) ) ;
#52 = UNCERTAINTY_MEASURE_WITH_UNIT (LENGTH_MEASURE( 1.000000000000000082E-05 ), #54, 'distance_accuracy_value', 'NONE');
#53 = DIRECTION ( 'NONE',  ( 8.673617379884033546E-19, 1.000000000000000000, 0.000000000000000000 ) ) ;
#54 =( CONVERSION_BASED_UNIT ( 'INCH', #121 ) LENGTH_UNIT ( ) NAMED_UNIT ( #144 ) );
#55 = MANIFOLD_SOLID_BREP ( 'Imported1', #3 ) ;
#56 = EDGE_LOOP ( 'NONE', ( #33, #87 ) ) ;
#57 = CIRCLE ( 'NONE', #50, 0.3149606299212598937 ) ;
#58 = SHAPE_DEFINITION_REPRESENTATION ( #41, #92 ) ;
#59 = CARTESIAN_POINT ( 'NONE',  ( -0.2657480314960632972, -0.5314960629921259283, -1.707404996040164512E-17 ) ) ;
#60 = CARTESIAN_POINT ( 'NONE',  ( 0.2657480314960630197, -4.385896583578173013E-17, -8.537024980200822558E-18 ) ) ;
#61 = DIRECTION ( 'NONE',  ( 0.000000000000000000, 0.000000000000000000, 1.000000000000000000 ) ) ;
#62 = CARTESIAN_POINT ( 'NONE',  ( -0.2657480314960630197, 6.400100914844303843E-17, -8.537024980200822558E-18 ) ) ;
#63 = EDGE_CURVE ( 'NONE', #10, #68, #211, .T. ) ;
#64 = CARTESIAN_POINT ( 'NONE',  ( 0.2657480314960630197, 0.5314960629921253732, 0.09842519685039372024 ) ) ;
#65 = ORIENTED_EDGE ( 'NONE', *, *, #6, .T. ) ;
#66 = CARTESIAN_POINT ( 'NONE',  ( -0.3149606299212592830, 0.6299212598425196763, 0.02038452570733734551 ) ) ;
#67 = PRESENTATION_LAYER_ASSIGNMENT (  '', '', ( #44 ) ) ;
#68 = VERTEX_POINT ( 'NONE', #5 ) ;
#69 = CARTESIAN_POINT ( 'NONE',  ( -0.3149606299212599492, 3.187983305760200487E-16, 0.04921259842519685318 ) ) ;
#70 = DIRECTION ( 'NONE',  ( 0.000000000000000000, 0.000000000000000000, 1.000000000000000000 ) ) ;
#71 = ORIENTED_EDGE ( 'NONE', *, *, #63, .F. ) ;
#72 = FACE_OUTER_BOUND ( 'NONE', #212, .T. ) ;
#73 = ORIENTED_EDGE ( 'NONE', *, *, #94, .F. ) ;
#74 = CARTESIAN_POINT ( 'NONE',  ( 0.2657480314960627976, -0.5314960629921261503, -1.707404996040164512E-17 ) ) ;
#75 = CARTESIAN_POINT ( 'NONE',  ( 0.2657480314960630752, -1.333910153156378525E-19, 0.04921259842519685318 ) ) ;
#76 =( NAMED_UNIT ( * ) PLANE_ANGLE_UNIT ( ) SI_UNIT ( $, .RADIAN. ) );
#77 = DIRECTION ( 'NONE',  ( 8.673617379884033546E-19, 1.000000000000000000, 0.000000000000000000 ) ) ;
#78 = PRODUCT ( 'RTP-0160-020', 'RTP-0160-020', '', ( #107 ) ) ;
#79 = CARTESIAN_POINT ( 'NONE',  ( -0.2657480314960630752, 1.008436075786222107E-16, 0.04921259842519685318 ) ) ;
#80 =( GEOMETRIC_REPRESENTATION_CONTEXT ( 3 ) GLOBAL_UNCERTAINTY_ASSIGNED_CONTEXT ( ( #103 ) ) GLOBAL_UNIT_ASSIGNED_CONTEXT ( ( #1, #15, #204 ) ) REPRESENTATION_CONTEXT ( 'NONE', 'WORKASPACE' ) );
#81 = CARTESIAN_POINT ( 'NONE',  ( 0.2657480314960630197, -4.385896583578173013E-17, -8.537024980200822558E-18 ) ) ;
#82 = DIRECTION ( 'NONE',  ( -1.000000000000000000, 3.799044412389209016E-16, 0.000000000000000000 ) ) ;
#83 = VERTEX_POINT ( 'NONE', #136 ) ;
#84 = DIRECTION ( 'NONE',  ( 3.799044412389206551E-16, 1.000000000000000000, -0.000000000000000000 ) ) ;
#85 = UNCERTAINTY_MEASURE_WITH_UNIT (LENGTH_MEASURE( 1.000000000000000082E-05 ), #209, 'distance_accuracy_value', 'NONE');
#86 = APPLICATION_PROTOCOL_DEFINITION ( 'draft international standard', 'automotive_design', 1998, #101 ) ;
#87 = ORIENTED_EDGE ( 'NONE', *, *, #127, .F. ) ;
#88 = SURFACE_STYLE_USAGE ( .BOTH. , #16 ) ;
#89 = CARTESIAN_POINT ( 'NONE',  ( -0.2945761042139225516, 1.122457022169533392E-16, -1.530883961142595395E-17 ) ) ;
#90 = CARTESIAN_POINT ( 'NONE',  ( -0.3149606299212599492, 1.200252355810109415E-16, 0.04921259842519685318 ) ) ;
#91 = CARTESIAN_POINT ( 'NONE',  ( -0.3149606299212598937, 1.200252355810109661E-16, 0.02038452570733734898 ) ) ;
#92 = ADVANCED_BREP_SHAPE_REPRESENTATION ( 'RTP-0160-020', ( #55, #140 ), #25 ) ;
#93 = CARTESIAN_POINT ( 'NONE',  ( -0.2657480314960630197, 6.400100914844303843E-17, 0.09842519685039372024 ) ) ;
#94 = EDGE_CURVE ( 'NONE', #158, #83, #152, .T. ) ;
#95 = CARTESIAN_POINT ( 'NONE',  ( -0.3149606299212599492, 1.200252355810109415E-16, 0.04921259842519685318 ) ) ;
#96 = CARTESIAN_POINT ( 'NONE',  ( -0.2657480314960625201, 0.5314960629921258173, 0.09842519685039373412 ) ) ;
#97 = AXIS2_PLACEMENT_3D ( 'NONE', #174, #61, #132 ) ;
#98 = CARTESIAN_POINT ( 'NONE',  ( 0.2657480314960630197, 0.5314960629921253732, -1.707404996040164512E-17 ) ) ;
#99 = CARTESIAN_POINT ( 'NONE',  ( 0.3149606299212598937, 0.6299212598425191212, 0.07804067114305635045 ) ) ;
#100 = CARTESIAN_POINT ( 'NONE',  ( -0.2657480314960625201, 0.5314960629921258173, -1.707404996040164512E-17 ) ) ;
#101 = APPLICATION_CONTEXT ( 'automotive_design' ) ;
#102 =( LENGTH_UNIT ( ) NAMED_UNIT ( * ) SI_UNIT ( $, .METRE. ) );
#103 = UNCERTAINTY_MEASURE_WITH_UNIT (LENGTH_MEASURE( 1.000000000000000082E-05 ), #1, 'distance_accuracy_value', 'NONE');
#104 = CARTESIAN_POINT ( 'NONE',  ( 0.3149606299212595051, -0.6299212598425198983, 0.02038452570733734551 ) ) ;
#105 = DIRECTION ( 'NONE',  ( 0.000000000000000000, 0.000000000000000000, 1.000000000000000000 ) ) ;
#106 = CARTESIAN_POINT ( 'NONE',  ( 0.3149606299212599492, -1.585967883100614337E-16, 0.04921259842519685318 ) ) ;
#107 = PRODUCT_CONTEXT ( 'NONE', #101, 'mechanical' ) ;
#108 = ORIENTED_EDGE ( 'NONE', *, *, #146, .T. ) ;
#109 = FILL_AREA_STYLE ('',( #170 ) ) ;
#110 = CARTESIAN_POINT ( 'NONE',  ( -0.3149606299212602267, -0.6299212598425195653, 0.04921259842519686012 ) ) ;
#111 = COLOUR_RGB ( '',0.7921568627450980005, 0.8196078431372548767, 0.9333333333333333481 ) ;
#112 = CARTESIAN_POINT ( 'NONE',  ( -0.2657480314960632972, -0.5314960629921259283, 0.09842519685039372024 ) ) ;
#113 = CARTESIAN_POINT ( 'NONE',  ( 0.2657480314960630752, 0.5314960629921254842, 0.09842519685039373412 ) ) ;
#114 =( BOUNDED_CURVE ( )  B_SPLINE_CURVE ( 3, ( #81, #98, #39, #24 ),
 .UNSPECIFIED., .F., .F. ) 
 B_SPLINE_CURVE_WITH_KNOTS ( ( 4, 4 ),
 ( 0.000000000000000000, 1.000000000000000000 ),
 .UNSPECIFIED. ) 
 CURVE ( )  GEOMETRIC_REPRESENTATION_ITEM ( )  RATIONAL_B_SPLINE_CURVE ( ( 1.000000000000000000, 0.3333333333333338144, 0.3333333333333338144, 1.000000000000000000 ) ) 
 REPRESENTATION_ITEM ( '' )  );
#115 = CARTESIAN_POINT ( 'NONE',  ( -0.2945761042139219410, 0.5891522084278446592, 0.09842519685039374799 ) ) ;
#116 = PRESENTATION_LAYER_ASSIGNMENT (  '', '', ( #235 ) ) ;
#117 = FACE_OUTER_BOUND ( 'NONE', #181, .T. ) ;
#118 = ADVANCED_FACE ( 'NONE', ( #26 ), #193, .T. ) ;
#119 = CARTESIAN_POINT ( 'NONE',  ( -0.2657480314960630752, 1.008436075786222107E-16, 0.04921259842519685318 ) ) ;
#120 = DIRECTION ( 'NONE',  ( 1.000000000000000000, 0.000000000000000000, -0.000000000000000000 ) ) ;
#121 = LENGTH_MEASURE_WITH_UNIT ( LENGTH_MEASURE( 0.02539999999999999897 ), #102 );
#122 = EDGE_LOOP ( 'NONE', ( #203, #246, #31, #65 ) ) ;
#123 = AXIS2_PLACEMENT_3D ( 'NONE', #29, #70, #120 ) ;
#124 = ORIENTED_EDGE ( 'NONE', *, *, #175, .T. ) ;
#125 = APPLICATION_PROTOCOL_DEFINITION ( 'draft international standard', 'automotive_design', 1998, #35 ) ;
#126 = CARTESIAN_POINT ( 'NONE',  ( 0.2657480314960630197, -2.024875612491382822E-17, 0.09842519685039372024 ) ) ;
#127 = EDGE_CURVE ( 'NONE', #68, #158, #114, .T. ) ;
#128 = CARTESIAN_POINT ( 'NONE',  ( 0.2657480314960630752, -1.337885282397054977E-16, -1.707404996040164512E-17 ) ) ;
#129 = LENGTH_MEASURE_WITH_UNIT ( LENGTH_MEASURE( 0.02539999999999999897 ), #227 );
#130 = EDGE_CURVE ( 'NONE', #158, #68, #249, .T. ) ;
#131 = FILL_AREA_STYLE ('',( #208 ) ) ;
#132 = DIRECTION ( 'NONE',  ( -0.9999904274898526735, 0.004375491819385793173, 0.000000000000000000 ) ) ;
#133 = CARTESIAN_POINT ( 'NONE',  ( 0.2945761042139225516, -4.501817804577509089E-19, 0.09842519685039373412 ) ) ;
#134 = CARTESIAN_POINT ( 'NONE',  ( -0.2945761042139225516, 2.981614888156866485E-16, 0.09842519685039373412 ) ) ;
#135 =( NAMED_UNIT ( * ) SI_UNIT ( $, .STERADIAN. ) SOLID_ANGLE_UNIT ( ) );
#136 = CARTESIAN_POINT ( 'NONE',  ( -0.3149606299212598381, 1.196624120193524151E-16, 0.04921259842519685318 ) ) ;
#137 = EDGE_CURVE ( 'NONE', #83, #10, #169, .T. ) ;
#138 = CARTESIAN_POINT ( 'NONE',  ( 0.3149606299212598937, 0.6299212598425192322, 0.04921259842519684624 ) ) ;
#139 = CIRCLE ( 'NONE', #148, 0.04921259842519686012 ) ;
#140 = AXIS2_PLACEMENT_3D ( 'NONE', #224, #105, #184 ) ;
#141 = DIRECTION ( 'NONE',  ( 1.000000000000000000, 0.000000000000000000, -0.000000000000000000 ) ) ;
#142 = CARTESIAN_POINT ( 'NONE',  ( 0.2945761042139225516, -4.501817804577509089E-19, -1.530883961142595395E-17 ) ) ;
#143 = DIRECTION ( 'NONE',  ( 0.000000000000000000, 0.000000000000000000, 1.000000000000000000 ) ) ;
#144 = DIMENSIONAL_EXPONENTS ( 1.000000000000000000, 0.000000000000000000, 0.000000000000000000, 0.000000000000000000, 0.000000000000000000, 0.000000000000000000, 0.000000000000000000 ) ;
#145 = ORIENTED_EDGE ( 'NONE', *, *, #127, .T. ) ;
#146 = EDGE_CURVE ( 'NONE', #225, #187, #160, .T. ) ;
#147 = PRESENTATION_STYLE_ASSIGNMENT (( #228 ) ) ;
#148 = AXIS2_PLACEMENT_3D ( 'NONE', #119, #84, #82 ) ;
#149 =( LENGTH_UNIT ( ) NAMED_UNIT ( * ) SI_UNIT ( $, .METRE. ) );
#150 =( BOUNDED_SURFACE ( )  B_SPLINE_SURFACE ( 3, 3, ( 
 ( #161, #14, #51, #218 ),
 ( #164, #157, #66, #182 ),
 ( #142, #163, #32, #159 ),
 ( #200, #245, #100, #220 ) ),
 .UNSPECIFIED., .F., .F., .F. ) 
 B_SPLINE_SURFACE_WITH_KNOTS ( ( 4, 4 ),
 ( 4, 4 ),
 ( 0.000000000000000000, 1.000000000000000000 ),
 ( 0.000000000000000000, 1.000000000000000000 ),
 .UNSPECIFIED. ) 
 GEOMETRIC_REPRESENTATION_ITEM ( )  RATIONAL_B_SPLINE_SURFACE ( (
 ( 1.000000000000000000, 0.3333333333333337034, 0.3333333333333337034, 1.000000000000000000),
 ( 0.8047378541243649375, 0.2682459513747886271, 0.2682459513747886271, 0.8047378541243649375),
 ( 0.8047378541243649375, 0.2682459513747886271, 0.2682459513747886271, 0.8047378541243649375),
 ( 1.000000000000000000, 0.3333333333333337034, 0.3333333333333337034, 1.000000000000000000) ) ) 
 REPRESENTATION_ITEM ( '' )  SURFACE ( )  );
#151 = CARTESIAN_POINT ( 'NONE',  ( -0.2657480314960630752, 1.012437806245691257E-16, -1.707404996040164512E-17 ) ) ;
#152 = CIRCLE ( 'NONE', #34, 0.04921259842519686012 ) ;
#153 = CARTESIAN_POINT ( 'NONE',  ( -0.2657480314960630752, 2.689765873136756962E-16, 0.09842519685039372024 ) ) ;
#154 = CARTESIAN_POINT ( 'NONE',  ( 0.2945761042139222741, -0.5891522084278451032, 0.09842519685039369248 ) ) ;
#155 = CARTESIAN_POINT ( 'NONE',  ( -0.3149606299212601712, -0.6299212598425196763, 0.07804067114305635045 ) ) ;
#156 = CARTESIAN_POINT ( 'NONE',  ( -0.2657480314960630197, 6.400100914844303843E-17, -8.537024980200822558E-18 ) ) ;
#157 = CARTESIAN_POINT ( 'NONE',  ( 0.3149606299212598937, 0.6299212598425191212, 0.02038452570733734551 ) ) ;
#158 = VERTEX_POINT ( 'NONE', #156 ) ;
#159 = CARTESIAN_POINT ( 'NONE',  ( -0.2945761042139225516, 2.981614888156866485E-16, -1.530883961142595395E-17 ) ) ;
#160 =( BOUNDED_CURVE ( )  B_SPLINE_CURVE ( 3, ( #176, #232, #64, #8 ),
 .UNSPECIFIED., .F., .F. ) 
 B_SPLINE_CURVE_WITH_KNOTS ( ( 4, 4 ),
 ( 0.000000000000000000, 1.000000000000000000 ),
 .UNSPECIFIED. ) 
 CURVE ( )  GEOMETRIC_REPRESENTATION_ITEM ( )  RATIONAL_B_SPLINE_CURVE ( ( 1.000000000000000000, 0.3333333333333338144, 0.3333333333333338144, 1.000000000000000000 ) ) 
 REPRESENTATION_ITEM ( '' )  );
#161 = CARTESIAN_POINT ( 'NONE',  ( 0.3149606299212599492, -4.855432957489218215E-19, 0.04921259842519685318 ) ) ;
#162 = ORIENTED_EDGE ( 'NONE', *, *, #63, .T. ) ;
#163 = CARTESIAN_POINT ( 'NONE',  ( 0.2945761042139225516, 0.5891522084278444371, -1.530883961142595704E-17 ) ) ;
#164 = CARTESIAN_POINT ( 'NONE',  ( 0.3149606299212598937, -4.855432957489217252E-19, 0.02038452570733734898 ) ) ;
#165 = ORIENTED_EDGE ( 'NONE', *, *, #6, .F. ) ;
#166 = SURFACE_STYLE_FILL_AREA ( #109 ) ;
#167 = CARTESIAN_POINT ( 'NONE',  ( -0.2657480314960630197, -0.5314960629921254842, 0.09842519685039373412 ) ) ;
#168 = CARTESIAN_POINT ( 'NONE',  ( -0.3149606299212601712, -0.6299212598425196763, 0.02038452570733734551 ) ) ;
#169 = CIRCLE ( 'NONE', #97, 0.3149606299212598937 ) ;
#170 = FILL_AREA_STYLE_COLOUR ( '', #37 ) ;
#171 = CARTESIAN_POINT ( 'NONE',  ( 0.2657480314960624090, -0.5314960629921255952, -1.707404996040164512E-17 ) ) ;
#172 = CARTESIAN_POINT ( 'NONE',  ( -0.2945761042139225516, 1.122457022169533392E-16, 0.09842519685039373412 ) ) ;
#173 = ADVANCED_FACE ( 'NONE', ( #117 ), #221, .T. ) ;
#174 = CARTESIAN_POINT ( 'NONE',  ( 0.000000000000000000, 0.000000000000000000, 0.04921259842519685318 ) ) ;
#175 = EDGE_CURVE ( 'NONE', #83, #225, #139, .T. ) ;
#176 = CARTESIAN_POINT ( 'NONE',  ( -0.2657480314960630197, 6.400100914844303843E-17, 0.09842519685039372024 ) ) ;
#177 = CARTESIAN_POINT ( 'NONE',  ( -0.3149606299212592830, 0.6299212598425196763, 0.07804067114305635045 ) ) ;
#178 = ORIENTED_EDGE ( 'NONE', *, *, #198, .T. ) ;
#179 =( NAMED_UNIT ( * ) PLANE_ANGLE_UNIT ( ) SI_UNIT ( $, .RADIAN. ) );
#180 = DIRECTION ( 'NONE',  ( 1.000000000000000000, -8.673617379884035472E-19, 0.000000000000000000 ) ) ;
#181 = EDGE_LOOP ( 'NONE', ( #178, #229, #124, #108 ) ) ;
#182 = CARTESIAN_POINT ( 'NONE',  ( -0.3149606299212598937, 3.187983305760200980E-16, 0.02038452570733734898 ) ) ;
#183 = ORIENTED_EDGE ( 'NONE', *, *, #137, .F. ) ;
#184 = DIRECTION ( 'NONE',  ( 1.000000000000000000, 0.000000000000000000, 0.000000000000000000 ) ) ;
#185 = ADVANCED_FACE ( 'NONE', ( #222 ), #150, .T. ) ;
#186 = AXIS2_PLACEMENT_3D ( 'NONE', #49, #143, #141 ) ;
#187 = VERTEX_POINT ( 'NONE', #217 ) ;
#188 = CARTESIAN_POINT ( 'NONE',  ( 0.3149606299212595606, -0.6299212598425197873, 0.04921259842519686012 ) ) ;
#189 = AXIS2_PLACEMENT_3D ( 'NONE', #75, #77, #47 ) ;
#190 = EDGE_CURVE ( 'NONE', #10, #83, #57, .T. ) ;
#191 = CARTESIAN_POINT ( 'NONE',  ( -0.2657480314960630752, 1.012437806245691257E-16, 0.09842519685039372024 ) ) ;
#192 = DIRECTION ( 'NONE',  ( 3.799044412389206551E-16, 1.000000000000000000, -0.000000000000000000 ) ) ;
#193 =( BOUNDED_SURFACE ( )  B_SPLINE_SURFACE ( 3, 3, ( 
 ( #191, #112, #194, #23 ),
 ( #172, #27, #154, #237 ),
 ( #28, #155, #214, #4 ),
 ( #95, #45, #231, #233 ) ),
 .UNSPECIFIED., .F., .F., .F. ) 
 B_SPLINE_SURFACE_WITH_KNOTS ( ( 4, 4 ),
 ( 4, 4 ),
 ( 0.000000000000000000, 1.000000000000000000 ),
 ( 0.000000000000000000, 1.000000000000000000 ),
 .UNSPECIFIED. ) 
 GEOMETRIC_REPRESENTATION_ITEM ( )  RATIONAL_B_SPLINE_SURFACE ( (
 ( 1.000000000000000000, 0.3333333333333334259, 0.3333333333333334259, 1.000000000000000000),
 ( 0.8047378541243649375, 0.2682459513747884050, 0.2682459513747884050, 0.8047378541243649375),
 ( 0.8047378541243649375, 0.2682459513747884050, 0.2682459513747884050, 0.8047378541243649375),
 ( 1.000000000000000000, 0.3333333333333334259, 0.3333333333333334259, 1.000000000000000000) ) ) 
 REPRESENTATION_ITEM ( '' )  SURFACE ( )  );
#194 = CARTESIAN_POINT ( 'NONE',  ( 0.2657480314960627976, -0.5314960629921261503, 0.09842519685039372024 ) ) ;
#195 = PLANE ( 'NONE',  #186 ) ;
#196 = CARTESIAN_POINT ( 'NONE',  ( 0.2657480314960630752, -1.333910153156378525E-19, 0.04921259842519685318 ) ) ;
#197 =( NAMED_UNIT ( * ) SI_UNIT ( $, .STERADIAN. ) SOLID_ANGLE_UNIT ( ) );
#198 = EDGE_CURVE ( 'NONE', #187, #10, #230, .T. ) ;
#199 = ORIENTED_EDGE ( 'NONE', *, *, #190, .F. ) ;
#200 = CARTESIAN_POINT ( 'NONE',  ( 0.2657480314960630752, -4.001730459469135574E-19, -1.707404996040164512E-17 ) ) ;
#201 = ORIENTED_EDGE ( 'NONE', *, *, #146, .F. ) ;
#202 = DIMENSIONAL_EXPONENTS ( 1.000000000000000000, 0.000000000000000000, 0.000000000000000000, 0.000000000000000000, 0.000000000000000000, 0.000000000000000000, 0.000000000000000000 ) ;
#203 = ORIENTED_EDGE ( 'NONE', *, *, #175, .F. ) ;
#204 =( NAMED_UNIT ( * ) SI_UNIT ( $, .STERADIAN. ) SOLID_ANGLE_UNIT ( ) );
#205 = EDGE_LOOP ( 'NONE', ( #199, #162, #145, #17 ) ) ;
#206 = CARTESIAN_POINT ( 'NONE',  ( 0.3149606299212598937, -1.585967883100614337E-16, 0.02038452570733734898 ) ) ;
#207 = MECHANICAL_DESIGN_GEOMETRIC_PRESENTATION_REPRESENTATION (  '', ( #44 ), #80 ) ;
#208 = FILL_AREA_STYLE_COLOUR ( '', #111 ) ;
#209 =( CONVERSION_BASED_UNIT ( 'INCH', #129 ) LENGTH_UNIT ( ) NAMED_UNIT ( #226 ) );
#210 = CARTESIAN_POINT ( 'NONE',  ( 0.2657480314960626311, -0.5314960629921257063, 0.09842519685039373412 ) ) ;
#211 = CIRCLE ( 'NONE', #189, 0.04921259842519686012 ) ;
#212 = EDGE_LOOP ( 'NONE', ( #201, #165 ) ) ;
#213 = CARTESIAN_POINT ( 'NONE',  ( 0.2657480314960630752, -4.001730459469135574E-19, 0.09842519685039372024 ) ) ;
#214 = CARTESIAN_POINT ( 'NONE',  ( 0.3149606299212595051, -0.6299212598425198983, 0.07804067114305635045 ) ) ;
#215 = CARTESIAN_POINT ( 'NONE',  ( 0.3149606299212598937, -4.855432957489217252E-19, 0.07804067114305633657 ) ) ;
#216 = DIRECTION ( 'NONE',  ( -1.000000000000000000, 3.799044412389209016E-16, 8.673617379884034486E-16 ) ) ;
#217 = CARTESIAN_POINT ( 'NONE',  ( 0.2657480314960630197, -2.024875612491382822E-17, 0.09842519685039372024 ) ) ;
#218 = CARTESIAN_POINT ( 'NONE',  ( -0.3149606299212599492, 3.187983305760200487E-16, 0.04921259842519685318 ) ) ;
#219 = CARTESIAN_POINT ( 'NONE',  ( -0.2657480314960630197, 6.400100914844303843E-17, 0.09842519685039372024 ) ) ;
#220 = CARTESIAN_POINT ( 'NONE',  ( -0.2657480314960630752, 2.689765873136756962E-16, -1.707404996040164512E-17 ) ) ;
#221 =( BOUNDED_SURFACE ( )  B_SPLINE_SURFACE ( 3, 3, ( 
 ( #213, #113, #96, #153 ),
 ( #133, #43, #115, #134 ),
 ( #215, #99, #177, #9 ),
 ( #30, #138, #48, #69 ) ),
 .UNSPECIFIED., .F., .F., .F. ) 
 B_SPLINE_SURFACE_WITH_KNOTS ( ( 4, 4 ),
 ( 4, 4 ),
 ( 0.000000000000000000, 1.000000000000000000 ),
 ( 0.000000000000000000, 1.000000000000000000 ),
 .UNSPECIFIED. ) 
 GEOMETRIC_REPRESENTATION_ITEM ( )  RATIONAL_B_SPLINE_SURFACE ( (
 ( 1.000000000000000000, 0.3333333333333337034, 0.3333333333333337034, 1.000000000000000000),
 ( 0.8047378541243649375, 0.2682459513747886271, 0.2682459513747886271, 0.8047378541243649375),
 ( 0.8047378541243649375, 0.2682459513747886271, 0.2682459513747886271, 0.8047378541243649375),
 ( 1.000000000000000000, 0.3333333333333337034, 0.3333333333333337034, 1.000000000000000000) ) ) 
 REPRESENTATION_ITEM ( '' )  SURFACE ( )  );
#222 = FACE_OUTER_BOUND ( 'NONE', #205, .T. ) ;
#223 = ADVANCED_FACE ( 'NONE', ( #72 ), #195, .T. ) ;
#224 = CARTESIAN_POINT ( 'NONE',  ( 0.000000000000000000, 0.000000000000000000, 0.000000000000000000 ) ) ;
#225 = VERTEX_POINT ( 'NONE', #219 ) ;
#226 = DIMENSIONAL_EXPONENTS ( 1.000000000000000000, 0.000000000000000000, 0.000000000000000000, 0.000000000000000000, 0.000000000000000000, 0.000000000000000000, 0.000000000000000000 ) ;
#227 =( LENGTH_UNIT ( ) NAMED_UNIT ( * ) SI_UNIT ( $, .METRE. ) );
#228 = SURFACE_STYLE_USAGE ( .BOTH. , #247 ) ;
#229 = ORIENTED_EDGE ( 'NONE', *, *, #190, .T. ) ;
#230 = CIRCLE ( 'NONE', #236, 0.04921259842519686012 ) ;
#231 = CARTESIAN_POINT ( 'NONE',  ( 0.3149606299212595606, -0.6299212598425197873, 0.04921259842519686012 ) ) ;
#232 = CARTESIAN_POINT ( 'NONE',  ( -0.2657480314960624090, 0.5314960629921255952, 0.09842519685039372024 ) ) ;
#233 = CARTESIAN_POINT ( 'NONE',  ( 0.3149606299212599492, -1.585967883100614337E-16, 0.04921259842519685318 ) ) ;
#234 = ADVANCED_FACE ( 'NONE', ( #11 ), #242, .F. ) ;
#235 = STYLED_ITEM ( 'NONE', ( #248 ), #55 ) ;
#236 = AXIS2_PLACEMENT_3D ( 'NONE', #196, #53, #180 ) ;
#237 = CARTESIAN_POINT ( 'NONE',  ( 0.2945761042139225516, -1.483208705300411182E-16, 0.09842519685039373412 ) ) ;
#238 = CARTESIAN_POINT ( 'NONE',  ( 0.000000000000000000, 0.000000000000000000, 0.04921259842519685318 ) ) ;
#239 = EDGE_LOOP ( 'NONE', ( #183, #73, #12, #71 ) ) ;
#240 = PRODUCT_DEFINITION ( 'UNKNOWN', '', #46, #244 ) ;
#241 = MECHANICAL_DESIGN_GEOMETRIC_PRESENTATION_REPRESENTATION (  '', ( #235 ), #21 ) ;
#242 = PLANE ( 'NONE',  #123 ) ;
#243 = DIRECTION ( 'NONE',  ( 0.9999904274898526735, -0.004375491819385793173, 0.000000000000000000 ) ) ;
#244 = PRODUCT_DEFINITION_CONTEXT ( 'detailed design', #35, 'design' ) ;
#245 = CARTESIAN_POINT ( 'NONE',  ( 0.2657480314960630752, 0.5314960629921254842, -1.707404996040164512E-17 ) ) ;
#246 = ORIENTED_EDGE ( 'NONE', *, *, #137, .T. ) ;
#247 = SURFACE_SIDE_STYLE ('',( #166 ) ) ;
#248 = PRESENTATION_STYLE_ASSIGNMENT (( #88 ) ) ;
#249 =( BOUNDED_CURVE ( )  B_SPLINE_CURVE ( 3, ( #62, #7, #171, #60 ),
 .UNSPECIFIED., .F., .T. ) 
 B_SPLINE_CURVE_WITH_KNOTS ( ( 4, 4 ),
 ( 0.000000000000000000, 1.000000000000000000 ),
 .UNSPECIFIED. ) 
 CURVE ( )  GEOMETRIC_REPRESENTATION_ITEM ( )  RATIONAL_B_SPLINE_CURVE ( ( 1.000000000000000000, 0.3333333333333338144, 0.3333333333333338144, 1.000000000000000000 ) ) 
 REPRESENTATION_ITEM ( '' )  );
#250 = LENGTH_MEASURE_WITH_UNIT ( LENGTH_MEASURE( 0.02539999999999999897 ), #149 );
#251 = CARTESIAN_POINT ( 'NONE',  ( 0.2945761042139225516, -1.483208705300411182E-16, -1.530883961142595395E-17 ) ) ;
ENDSEC;
END-ISO-10303-21;
