ISO-10303-21;
HEADER;
FILE_DESCRIPTION (( 'STEP AP214' ),
    '1' );
FILE_NAME ('RTP-0090-020.STEP',
    '2022-01-20T16:03:59',
    ( '' ),
    ( '' ),
    'SwSTEP 2.0',
    'SolidWorks 2021',
    '' );
FILE_SCHEMA (( 'AUTOMOTIVE_DESIGN' ));
ENDSEC;

DATA;
#1 = DIMENSIONAL_EXPONENTS ( 1.000000000000000000, 0.000000000000000000, 0.000000000000000000, 0.000000000000000000, 0.000000000000000000, 0.000000000000000000, 0.000000000000000000 ) ;
#2 = CARTESIAN_POINT ( 'NONE',  ( 0.1748429314431647896, -6.749275658962014784E-17, 0.06284652692528130968 ) ) ;
#3 = CARTESIAN_POINT ( 'NONE',  ( 0.1769860281500130472, -3.802721298344010743E-17, 0.03937007874015688996 ) ) ;
#4 = CARTESIAN_POINT ( 'NONE',  ( -0.1748429314431633741, 0.3496858628893688703, 0.01589363055503247718 ) ) ;
#5 = CARTESIAN_POINT ( 'NONE',  ( -0.1748429314452535632, -0.3496858628873739661, 0.06284652692528130968 ) ) ;
#6 = UNCERTAINTY_MEASURE_WITH_UNIT (LENGTH_MEASURE( 1.000000000000000082E-05 ), #147, 'distance_accuracy_value', 'NONE');
#7 = CIRCLE ( 'NONE', #241, 0.04330708661417322081 ) ;
#8 = CARTESIAN_POINT ( 'NONE',  ( -0.1338582677165354173, 7.995520089981400770E-13, 0.07874015748031495954 ) ) ;
#9 = PRODUCT_DEFINITION_SHAPE ( 'NONE', 'NONE',  #117 ) ;
#10 = CARTESIAN_POINT ( 'NONE',  ( 0.1769860281500131860, 0.3539720562979120078, 0.03937007874015631403 ) ) ;
#11 = ORIENTED_EDGE ( 'NONE', *, *, #49, .F. ) ;
#12 = AXIS2_PLACEMENT_3D ( 'NONE', #17, #190, #150 ) ;
#13 = DIRECTION ( 'NONE',  ( 0.000000000000000000, 0.000000000000000000, 1.000000000000000000 ) ) ;
#14 = ORIENTED_EDGE ( 'NONE', *, *, #76, .T. ) ;
#15 = FILL_AREA_STYLE_COLOUR ( '', #102 ) ;
#16 = CARTESIAN_POINT ( 'NONE',  ( 0.1338582677165354173, -1.529413627625620621E-12, 0.04330708661417323468 ) ) ;
#17 = CARTESIAN_POINT ( 'NONE',  ( 0.000000000000000000, 0.000000000000000000, 0.000000000000000000 ) ) ;
#18 = CIRCLE ( 'NONE', #222, 0.1769860281500129917 ) ;
#19 = VERTEX_POINT ( 'NONE', #153 ) ;
#20 = LENGTH_MEASURE_WITH_UNIT ( LENGTH_MEASURE( 0.02539999999999999897 ), #266 );
#21 = CARTESIAN_POINT ( 'NONE',  ( -7.647210866514491265E-13, -0.1338582677165354728, 0.000000000000000000 ) ) ;
#22 = EDGE_CURVE ( 'NONE', #204, #41, #7, .T. ) ;
#23 = APPLICATION_PROTOCOL_DEFINITION ( 'draft international standard', 'automotive_design', 1998, #156 ) ;
#24 = DIRECTION ( 'NONE',  ( -1.000000000000000000, 2.142383492831357748E-16, 0.000000000000000000 ) ) ;
#25 = DIRECTION ( 'NONE',  ( -0.9999804446616148423, -0.006253822379880091820, 0.000000000000000000 ) ) ;
#26 = CARTESIAN_POINT ( 'NONE',  ( -0.1748429314431634296, 3.762284808369428198E-17, 0.01589363055503247371 ) ) ;
#27 =( BOUNDED_SURFACE ( )  B_SPLINE_SURFACE ( 3, 3, ( 
 ( #159, #234, #215, #179 ),
 ( #213, #29, #4, #26 ),
 ( #112, #197, #160, #235 ),
 ( #110, #237, #268, #48 ) ),
 .UNSPECIFIED., .F., .F., .F. ) 
 B_SPLINE_SURFACE_WITH_KNOTS ( ( 4, 4 ),
 ( 4, 4 ),
 ( 0.000000000000000000, 1.000000000000000000 ),
 ( 0.000000000000000000, 1.000000000000000000 ),
 .UNSPECIFIED. ) 
 GEOMETRIC_REPRESENTATION_ITEM ( )  RATIONAL_B_SPLINE_SURFACE ( (
 ( 1.000000000000000000, 0.3333333333304336343, 0.3333333333304336343, 1.000000000000000000),
 ( 0.8256992972506704831, 0.2752330990811625577, 0.2752330990811625577, 0.8256992972506704831),
 ( 0.8256992972506704831, 0.2752330990811625577, 0.2752330990811625577, 0.8256992972506704831),
 ( 1.000000000000000000, 0.3333333333304336343, 0.3333333333304336343, 1.000000000000000000) ) ) 
 REPRESENTATION_ITEM ( '' )  SURFACE ( )  );
#28 = CARTESIAN_POINT ( 'NONE',  ( -0.1748429314431637349, 1.997688821141742322E-12, 0.01589363055503278596 ) ) ;
#29 = CARTESIAN_POINT ( 'NONE',  ( 0.1748429314462054962, 0.3496858628878478092, 0.01589363055503247718 ) ) ;
#30 = CARTESIAN_POINT ( 'NONE',  ( 0.07841235779216826352, -0.1338582677169833923, 8.537024980200822558E-18 ) ) ;
#31 = CARTESIAN_POINT ( 'NONE',  ( -0.1338582677165354173, 1.529413627625620621E-12, 8.537024980200822558E-18 ) ) ;
#32 = LENGTH_MEASURE_WITH_UNIT ( LENGTH_MEASURE( 0.02539999999999999897 ), #56 );
#33 = STYLED_ITEM ( 'NONE', ( #144 ), #198 ) ;
#34 = CARTESIAN_POINT ( 'NONE',  ( -0.1769860281500132138, 1.057159435602540964E-12, 0.03937007874015632097 ) ) ;
#35 = ORIENTED_EDGE ( 'NONE', *, *, #76, .F. ) ;
#36 = UNCERTAINTY_MEASURE_WITH_UNIT (LENGTH_MEASURE( 1.000000000000000082E-05 ), #126, 'distance_accuracy_value', 'NONE');
#37 = CARTESIAN_POINT ( 'NONE',  ( -0.1748429314410760993, 0.3496858628852851925, 0.06284652692528130968 ) ) ;
#38 = ORIENTED_EDGE ( 'NONE', *, *, #61, .F. ) ;
#39 = CIRCLE ( 'NONE', #155, 0.04330708661417322081 ) ;
#40 = CARTESIAN_POINT ( 'NONE',  ( -0.1769860281500130472, 2.022175029734728642E-12, 0.03937007874015688996 ) ) ;
#41 = VERTEX_POINT ( 'NONE', #250 ) ;
#42 = PRODUCT_CONTEXT ( 'NONE', #156, 'mechanical' ) ;
#43 = CARTESIAN_POINT ( 'NONE',  ( 0.1338582677165354451, -3.058987724642666128E-13, 0.07874015748031495954 ) ) ;
#44 = CARTESIAN_POINT ( 'NONE',  ( 0.1748429314431646786, -0.3496858628884183529, 0.06284652692528130968 ) ) ;
#45 =( GEOMETRIC_REPRESENTATION_CONTEXT ( 3 ) GLOBAL_UNCERTAINTY_ASSIGNED_CONTEXT ( ( #74 ) ) GLOBAL_UNIT_ASSIGNED_CONTEXT ( ( #124, #119, #224 ) ) REPRESENTATION_CONTEXT ( 'NONE', 'WORKASPACE' ) );
#46 = CARTESIAN_POINT ( 'NONE',  ( 0.1574323314918738836, -0.09222172463234057371, 9.980520067469014138E-18 ) ) ;
#47 = CARTESIAN_POINT ( 'NONE',  ( 0.1036760149391897368, -0.1769860281506053235, 0.03937007874015688996 ) ) ;
#48 = CARTESIAN_POINT ( 'NONE',  ( -0.1338582677165354451, 2.879998173895847580E-17, -8.537024980200822558E-18 ) ) ;
#49 = EDGE_CURVE ( 'NONE', #204, #106, #18, .T. ) ;
#50 = AXIS2_PLACEMENT_3D ( 'NONE', #122, #13, #80 ) ;
#51 = CARTESIAN_POINT ( 'NONE',  ( 0.1748429314431637349, -3.756586344235057493E-17, 0.01589363055503278596 ) ) ;
#52 = SURFACE_SIDE_STYLE ('',( #239 ) ) ;
#53 = EDGE_LOOP ( 'NONE', ( #64, #38 ) ) ;
#54 = CARTESIAN_POINT ( 'NONE',  ( -0.1769860281478988773, 0.3539720562989692176, 0.03937007874015631403 ) ) ;
#55 = CARTESIAN_POINT ( 'NONE',  ( -0.1574323314899939430, 0.3148646629828090182, 0.07874015748031498729 ) ) ;
#56 =( LENGTH_UNIT ( ) NAMED_UNIT ( * ) SI_UNIT ( $, .METRE. ) );
#57 = EDGE_CURVE ( 'NONE', #121, #41, #162, .T. ) ;
#58 = EDGE_LOOP ( 'NONE', ( #209, #88, #251, #14 ) ) ;
#59 = PRESENTATION_STYLE_ASSIGNMENT (( #246 ) ) ;
#60 = ORIENTED_EDGE ( 'NONE', *, *, #22, .F. ) ;
#61 = EDGE_CURVE ( 'NONE', #41, #121, #187, .T. ) ;
#62 = DIRECTION ( 'NONE',  ( 1.142561913136664099E-11, 1.000000000000000000, 0.000000000000000000 ) ) ;
#63 =( NAMED_UNIT ( * ) PLANE_ANGLE_UNIT ( ) SI_UNIT ( $, .RADIAN. ) );
#64 = ORIENTED_EDGE ( 'NONE', *, *, #57, .F. ) ;
#65 = FACE_OUTER_BOUND ( 'NONE', #189, .T. ) ;
#66 = ORIENTED_EDGE ( 'NONE', *, *, #139, .F. ) ;
#67 = EDGE_CURVE ( 'NONE', #121, #106, #82, .T. ) ;
#68 = CARTESIAN_POINT ( 'NONE',  ( 0.1769860281500132138, -6.832029762737887612E-17, 0.03937007874015632097 ) ) ;
#69 =( GEOMETRIC_REPRESENTATION_CONTEXT ( 3 ) GLOBAL_UNCERTAINTY_ASSIGNED_CONTEXT ( ( #36 ) ) GLOBAL_UNIT_ASSIGNED_CONTEXT ( ( #126, #63, #174 ) ) REPRESENTATION_CONTEXT ( 'NONE', 'WORKASPACE' ) );
#70 = CARTESIAN_POINT ( 'NONE',  ( 0.1574323314918745498, -0.3148646629856300949, 0.07874015748031497341 ) ) ;
#71 = CARTESIAN_POINT ( 'NONE',  ( -0.1748429314431647896, 1.044382887887592167E-12, 0.06284652692528130968 ) ) ;
#72 = CARTESIAN_POINT ( 'NONE',  ( -8.993978699952384880E-13, -0.1574323314918739114, 9.980520067469011056E-18 ) ) ;
#73 = CARTESIAN_POINT ( 'NONE',  ( 0.1024206179538011130, -0.1748429314437488780, 0.01589363055503278249 ) ) ;
#74 = UNCERTAINTY_MEASURE_WITH_UNIT (LENGTH_MEASURE( 1.000000000000000082E-05 ), #124, 'distance_accuracy_value', 'NONE');
#75 = DIRECTION ( 'NONE',  ( 1.142577525647947567E-11, 1.000000000000000000, -0.000000000000000000 ) ) ;
#76 = EDGE_CURVE ( 'NONE', #106, #204, #123, .T. ) ;
#77 = FACE_OUTER_BOUND ( 'NONE', #53, .T. ) ;
#78 = FILL_AREA_STYLE ('',( #164 ) ) ;
#79 = CARTESIAN_POINT ( 'NONE',  ( 0.1574323314918747441, 0.3148646629818686593, 0.07874015748031498729 ) ) ;
#80 = DIRECTION ( 'NONE',  ( 1.000000000000000000, 0.000000000000000000, -0.000000000000000000 ) ) ;
#81 =( BOUNDED_SURFACE ( )  B_SPLINE_SURFACE ( 3, 3, ( 
 ( #111, #138, #252, #199 ),
 ( #116, #161, #70, #196 ),
 ( #71, #5, #44, #2 ),
 ( #195, #90, #91, #68 ) ),
 .UNSPECIFIED., .F., .F., .T. ) 
 B_SPLINE_SURFACE_WITH_KNOTS ( ( 4, 4 ),
 ( 4, 4 ),
 ( 0.000000000000000000, 1.000000000000000000 ),
 ( 0.000000000000000000, 1.000000000000000000 ),
 .UNSPECIFIED. ) 
 GEOMETRIC_REPRESENTATION_ITEM ( )  RATIONAL_B_SPLINE_SURFACE ( (
 ( 1.000000000000000000, 0.3333333333313423519, 0.3333333333313423519, 1.000000000000000000),
 ( 0.8256992972506581596, 0.2752330990819087941, 0.2752330990819087941, 0.8256992972506581596),
 ( 0.8256992972506581596, 0.2752330990819087941, 0.2752330990819087941, 0.8256992972506581596),
 ( 1.000000000000000000, 0.3333333333313423519, 0.3333333333313423519, 1.000000000000000000) ) ) 
 REPRESENTATION_ITEM ( '' )  SURFACE ( )  );
#82 = CIRCLE ( 'NONE', #244, 0.04330708661417322081 ) ;
#83 = CARTESIAN_POINT ( 'NONE',  ( 0.1338582677165354451, -6.117711601857037343E-13, 0.000000000000000000 ) ) ;
#84 = ORIENTED_EDGE ( 'NONE', *, *, #139, .T. ) ;
#85 = CARTESIAN_POINT ( 'NONE',  ( 0.1338582677165354451, 0.2677165354300117817, 0.07874015748031498729 ) ) ;
#86 =( NAMED_UNIT ( * ) SI_UNIT ( $, .STERADIAN. ) SOLID_ANGLE_UNIT ( ) );
#87 = AXIS2_PLACEMENT_3D ( 'NONE', #240, #238, #99 ) ;
#88 = ORIENTED_EDGE ( 'NONE', *, *, #61, .T. ) ;
#89 = VERTEX_POINT ( 'NONE', #125 ) ;
#90 = CARTESIAN_POINT ( 'NONE',  ( -0.1769860281521275780, -0.3539720563010834709, 0.03937007874015632097 ) ) ;
#91 = CARTESIAN_POINT ( 'NONE',  ( 0.1769860281500130750, -0.3539720563021407362, 0.03937007874015632097 ) ) ;
#92 = DIMENSIONAL_EXPONENTS ( 1.000000000000000000, 0.000000000000000000, 0.000000000000000000, 0.000000000000000000, 0.000000000000000000, 0.000000000000000000, 0.000000000000000000 ) ;
#93 = CARTESIAN_POINT ( 'NONE',  ( -9.988631935025924929E-13, -0.1748429314431637349, 0.01589363055503278596 ) ) ;
#94 = CARTESIAN_POINT ( 'NONE',  ( -0.1338582677165354451, 1.529434436624009889E-12, 0.03543307086614173179 ) ) ;
#95 = CARTESIAN_POINT ( 'NONE',  ( 0.1338582677165354173, -6.669550765781892623E-20, 0.03543307086614173873 ) ) ;
#96 = LENGTH_MEASURE_WITH_UNIT ( LENGTH_MEASURE( 0.02539999999999999897 ), #188 );
#97 = CARTESIAN_POINT ( 'NONE',  ( -0.1338582677165354451, -0.2677165354300117817, 0.07874015748031498729 ) ) ;
#98 = CARTESIAN_POINT ( 'NONE',  ( 0.1338582677165354173, -2.000865229734567787E-19, 0.07874015748031495954 ) ) ;
#99 = DIRECTION ( 'NONE',  ( 1.000000000000000000, 0.000000000000000000, -0.000000000000000000 ) ) ;
#100 = CARTESIAN_POINT ( 'NONE',  ( -0.1748429314431647896, 1.044358454933324074E-12, 0.06284652692528130968 ) ) ;
#101 = CARTESIAN_POINT ( 'NONE',  ( 0.000000000000000000, 0.000000000000000000, 0.03937007874015629322 ) ) ;
#102 = COLOUR_RGB ( '',0.7921568627450980005, 0.8196078431372548767, 0.9333333333333333481 ) ;
#103 = DIRECTION ( 'NONE',  ( 2.142383492831356762E-16, 1.000000000000000000, -0.000000000000000000 ) ) ;
#104 = CARTESIAN_POINT ( 'NONE',  ( -0.1338582677134763643, 0.2677165354315413914, 0.07874015748031498729 ) ) ;
#105 = FILL_AREA_STYLE ('',( #15 ) ) ;
#106 = VERTEX_POINT ( 'NONE', #265 ) ;
#107 = EDGE_CURVE ( 'NONE', #19, #89, #143, .T. ) ;
#108 = CARTESIAN_POINT ( 'NONE',  ( -0.1036760149412119525, -0.1769860281494207432, 0.03937007874015688996 ) ) ;
#109 = ADVANCED_BREP_SHAPE_REPRESENTATION ( 'RTP-0090-020', ( #198, #12 ), #69 ) ;
#110 = CARTESIAN_POINT ( 'NONE',  ( 0.1338582677165354451, -1.164480753841899456E-12, -8.537024980200822558E-18 ) ) ;
#111 = CARTESIAN_POINT ( 'NONE',  ( -0.1338582677165354173, 7.995706899217973123E-13, 0.07874015748031495954 ) ) ;
#112 = CARTESIAN_POINT ( 'NONE',  ( 0.1574323314918736894, -1.369559934992695037E-12, -7.093529892932646385E-18 ) ) ;
#113 = MECHANICAL_DESIGN_GEOMETRIC_PRESENTATION_REPRESENTATION (  '', ( #33 ), #45 ) ;
#114 = DIMENSIONAL_EXPONENTS ( 1.000000000000000000, 0.000000000000000000, 0.000000000000000000, 0.000000000000000000, 0.000000000000000000, 0.000000000000000000, 0.000000000000000000 ) ;
#115 = CARTESIAN_POINT ( 'NONE',  ( -0.1574323314918739114, 1.798761922148425703E-12, 9.980520067469011056E-18 ) ) ;
#116 = CARTESIAN_POINT ( 'NONE',  ( -0.1574323314918746886, 9.403847858070551358E-13, 0.07874015748031495954 ) ) ;
#117 = PRODUCT_DEFINITION ( 'UNKNOWN', '', #236, #200 ) ;
#118 = CARTESIAN_POINT ( 'NONE',  ( -0.1338582677149363354, 0.2677165354322713076, 0.07874015748031495954 ) ) ;
#119 =( NAMED_UNIT ( * ) PLANE_ANGLE_UNIT ( ) SI_UNIT ( $, .RADIAN. ) );
#120 = SURFACE_STYLE_USAGE ( .BOTH. , #52 ) ;
#121 = VERTEX_POINT ( 'NONE', #171 ) ;
#122 = CARTESIAN_POINT ( 'NONE',  ( 0.000000000000000000, 0.000000000000000000, 0.000000000000000000 ) ) ;
#123 = CIRCLE ( 'NONE', #186, 0.1769860281500129917 ) ;
#124 =( CONVERSION_BASED_UNIT ( 'INCH', #96 ) LENGTH_UNIT ( ) NAMED_UNIT ( #92 ) );
#125 = CARTESIAN_POINT ( 'NONE',  ( 0.1338582677165354451, -3.058987724642666128E-13, 0.07874015748031495954 ) ) ;
#126 =( CONVERSION_BASED_UNIT ( 'INCH', #32 ) LENGTH_UNIT ( ) NAMED_UNIT ( #114 ) );
#127 = CARTESIAN_POINT ( 'NONE',  ( -0.1338582677165354451, 3.058941704742382519E-13, 0.000000000000000000 ) ) ;
#128 = STYLED_ITEM ( 'NONE', ( #59 ), #109 ) ;
#129 = CARTESIAN_POINT ( 'NONE',  ( 0.1338582677174313673, 0.07841235779140359741, 0.000000000000000000 ) ) ;
#130 = CARTESIAN_POINT ( 'NONE',  ( 0.07841235779369774839, 0.1338582677160874979, 0.000000000000000000 ) ) ;
#131 = ADVANCED_FACE ( 'NONE', ( #65 ), #269, .T. ) ;
#132 = ORIENTED_EDGE ( 'NONE', *, *, #67, .F. ) ;
#133 = CLOSED_SHELL ( 'NONE', ( #228, #145, #131, #178, #135, #243 ) ) ;
#134 = CARTESIAN_POINT ( 'NONE',  ( 0.1769860281500129917, -0.1036760149402008863, 0.03937007874015688996 ) ) ;
#135 = ADVANCED_FACE ( 'NONE', ( #255 ), #81, .T. ) ;
#136 = CARTESIAN_POINT ( 'NONE',  ( -0.1574323314929275686, -0.09222172463054177649, 9.980520067469014138E-18 ) ) ;
#137 = CIRCLE ( 'NONE', #169, 0.04330708661417324162 ) ;
#138 = CARTESIAN_POINT ( 'NONE',  ( -0.1338582677181345826, -0.2677165354338704173, 0.07874015748031495954 ) ) ;
#139 = EDGE_CURVE ( 'NONE', #89, #204, #39, .T. ) ;
#140 = PLANE ( 'NONE',  #87 ) ;
#141 = APPLICATION_CONTEXT ( 'automotive_design' ) ;
#142 = CARTESIAN_POINT ( 'NONE',  ( 0.1748429314431647896, -2.356350521342562871E-19, 0.06284652692528130968 ) ) ;
#143 =( BOUNDED_CURVE ( )  B_SPLINE_CURVE ( 3, ( #231, #104, #85, #43 ),
 .UNSPECIFIED., .F., .T. ) 
 B_SPLINE_CURVE_WITH_KNOTS ( ( 4, 4 ),
 ( 0.000000000000000000, 1.000000000000000000 ),
 .UNSPECIFIED. ) 
 CURVE ( )  GEOMETRIC_REPRESENTATION_ITEM ( )  RATIONAL_B_SPLINE_CURVE ( ( 1.000000000000000000, 0.3333333333371422125, 0.3333333333371422125, 1.000000000000000000 ) ) 
 REPRESENTATION_ITEM ( '' )  );
#144 = PRESENTATION_STYLE_ASSIGNMENT (( #120 ) ) ;
#145 = ADVANCED_FACE ( 'NONE', ( #181 ), #27, .T. ) ;
#146 = ORIENTED_EDGE ( 'NONE', *, *, #158, .F. ) ;
#147 =( CONVERSION_BASED_UNIT ( 'INCH', #20 ) LENGTH_UNIT ( ) NAMED_UNIT ( #1 ) );
#148 = DIRECTION ( 'NONE',  ( 0.9999804446616148423, 0.006253822379880091820, 0.000000000000000000 ) ) ;
#149 = CARTESIAN_POINT ( 'NONE',  ( 0.1338582677165354451, -6.117711601857037343E-13, 0.000000000000000000 ) ) ;
#150 = DIRECTION ( 'NONE',  ( 1.000000000000000000, 0.000000000000000000, 0.000000000000000000 ) ) ;
#151 = DIRECTION ( 'NONE',  ( -0.000000000000000000, -0.000000000000000000, -1.000000000000000000 ) ) ;
#152 = CARTESIAN_POINT ( 'NONE',  ( -0.07841235779216829127, 0.1338582677169834201, 0.000000000000000000 ) ) ;
#153 = CARTESIAN_POINT ( 'NONE',  ( -0.1338582677165354451, 6.117856464499670683E-13, 0.07874015748031495954 ) ) ;
#154 = COLOUR_RGB ( '',0.7921568627450980005, 0.8196078431372548767, 0.9333333333333333481 ) ;
#155 = AXIS2_PLACEMENT_3D ( 'NONE', #95, #182, #257 ) ;
#156 = APPLICATION_CONTEXT ( 'automotive_design' ) ;
#157 = CARTESIAN_POINT ( 'NONE',  ( -0.07841235779369773451, -0.1338582677160874701, 8.537024980200822558E-18 ) ) ;
#158 = EDGE_CURVE ( 'NONE', #106, #19, #137, .T. ) ;
#159 = CARTESIAN_POINT ( 'NONE',  ( 0.1769860281500129917, -1.539664509975534541E-12, 0.03937007874015630710 ) ) ;
#160 = CARTESIAN_POINT ( 'NONE',  ( -0.1574323314918736061, 0.3148646629864863544, -7.093529892932646385E-18 ) ) ;
#161 = CARTESIAN_POINT ( 'NONE',  ( -0.1574323314937554619, -0.3148646629846896805, 0.07874015748031497341 ) ) ;
#162 =( BOUNDED_CURVE ( )  B_SPLINE_CURVE ( 3, ( #194, #230, #227, #21, #192, #262, #149 ),
 .UNSPECIFIED., .F., .F. ) 
 B_SPLINE_CURVE_WITH_KNOTS ( ( 4, 3, 4 ),
 ( 0.000000000000000000, 0.5000000000000000000, 1.000000000000000000 ),
 .UNSPECIFIED. ) 
 CURVE ( )  GEOMETRIC_REPRESENTATION_ITEM ( )  RATIONAL_B_SPLINE_CURVE ( ( 1.000000000000000000, 0.8047378541230184590, 0.8047378541230184590, 1.000000000000000000, 0.8047378541230184590, 0.8047378541230184590, 1.000000000000000000 ) ) 
 REPRESENTATION_ITEM ( '' )  );
#163 = CARTESIAN_POINT ( 'NONE',  ( -0.1338582677174313396, -0.07841235779140359741, 8.537024980200822558E-18 ) ) ;
#164 = FILL_AREA_STYLE_COLOUR ( '', #154 ) ;
#165 = FACE_OUTER_BOUND ( 'NONE', #264, .T. ) ;
#166 = CARTESIAN_POINT ( 'NONE',  ( 0.1769860281500132138, -2.374938922185855605E-19, 0.03937007874015632097 ) ) ;
#167 = ORIENTED_EDGE ( 'NONE', *, *, #221, .F. ) ;
#168 =( BOUNDED_SURFACE ( )  B_SPLINE_SURFACE ( 3, 3, ( 
 ( #98, #258, #118, #8 ),
 ( #183, #79, #55, #203 ),
 ( #142, #220, #37, #100 ),
 ( #166, #10, #54, #34 ) ),
 .UNSPECIFIED., .F., .F., .F. ) 
 B_SPLINE_SURFACE_WITH_KNOTS ( ( 4, 4 ),
 ( 4, 4 ),
 ( 0.000000000000000000, 1.000000000000000000 ),
 ( 0.000000000000000000, 1.000000000000000000 ),
 .UNSPECIFIED. ) 
 GEOMETRIC_REPRESENTATION_ITEM ( )  RATIONAL_B_SPLINE_SURFACE ( (
 ( 1.000000000000000000, 0.3333333333353243888, 0.3333333333353243888, 1.000000000000000000),
 ( 0.8256992972506581596, 0.2752330990851967196, 0.2752330990851967196, 0.8256992972506581596),
 ( 0.8256992972506581596, 0.2752330990851967196, 0.2752330990851967196, 0.8256992972506581596),
 ( 1.000000000000000000, 0.3333333333353243888, 0.3333333333353243888, 1.000000000000000000) ) ) 
 REPRESENTATION_ITEM ( '' )  SURFACE ( )  );
#169 = AXIS2_PLACEMENT_3D ( 'NONE', #94, #75, #242 ) ;
#170 = CARTESIAN_POINT ( 'NONE',  ( 7.647210866514491265E-13, 0.1338582677165354728, 0.000000000000000000 ) ) ;
#171 = CARTESIAN_POINT ( 'NONE',  ( -0.1338582677165354451, 3.058941704742382519E-13, 0.000000000000000000 ) ) ;
#172 = SHAPE_DEFINITION_REPRESENTATION ( #9, #109 ) ;
#173 = ORIENTED_EDGE ( 'NONE', *, *, #158, .T. ) ;
#174 =( NAMED_UNIT ( * ) SI_UNIT ( $, .STERADIAN. ) SOLID_ANGLE_UNIT ( ) );
#175 = ORIENTED_EDGE ( 'NONE', *, *, #49, .T. ) ;
#176 = CARTESIAN_POINT ( 'NONE',  ( -1.011106528473855987E-12, -0.1769860281500130472, 0.03937007874015688996 ) ) ;
#177 = CARTESIAN_POINT ( 'NONE',  ( 0.1574323314918739114, -3.381784205109039467E-17, 9.980520067469011056E-18 ) ) ;
#178 = ADVANCED_FACE ( 'NONE', ( #185 ), #168, .T. ) ;
#179 = CARTESIAN_POINT ( 'NONE',  ( -0.1769860281500129917, 3.808419762503228102E-17, 0.03937007874015630710 ) ) ;
#180 = CARTESIAN_POINT ( 'NONE',  ( -0.1024206179557988483, -0.1748429314425786196, 0.01589363055503278249 ) ) ;
#181 = FACE_OUTER_BOUND ( 'NONE', #58, .T. ) ;
#182 = DIRECTION ( 'NONE',  ( 0.000000000000000000, 1.000000000000000000, 0.000000000000000000 ) ) ;
#183 = CARTESIAN_POINT ( 'NONE',  ( 0.1574323314918746886, -2.205337639010845150E-19, 0.07874015748031495954 ) ) ;
#184 = CARTESIAN_POINT ( 'NONE',  ( -0.1338582677165354451, 6.117856464499670683E-13, 0.07874015748031495954 ) ) ;
#185 = FACE_OUTER_BOUND ( 'NONE', #248, .T. ) ;
#186 = AXIS2_PLACEMENT_3D ( 'NONE', #191, #210, #25 ) ;
#187 =( BOUNDED_CURVE ( )  B_SPLINE_CURVE ( 3, ( #83, #129, #130, #170, #152, #232, #127 ),
 .UNSPECIFIED., .F., .T. ) 
 B_SPLINE_CURVE_WITH_KNOTS ( ( 4, 3, 4 ),
 ( 0.000000000000000000, 0.5000000000000000000, 1.000000000000000000 ),
 .UNSPECIFIED. ) 
 CURVE ( )  GEOMETRIC_REPRESENTATION_ITEM ( )  RATIONAL_B_SPLINE_CURVE ( ( 1.000000000000000000, 0.8047378541230184590, 0.8047378541230184590, 1.000000000000000000, 0.8047378541230184590, 0.8047378541230184590, 1.000000000000000000 ) ) 
 REPRESENTATION_ITEM ( '' )  );
#188 =( LENGTH_UNIT ( ) NAMED_UNIT ( * ) SI_UNIT ( $, .METRE. ) );
#189 = EDGE_LOOP ( 'NONE', ( #132, #193, #60, #175 ) ) ;
#190 = DIRECTION ( 'NONE',  ( 0.000000000000000000, 0.000000000000000000, 1.000000000000000000 ) ) ;
#191 = CARTESIAN_POINT ( 'NONE',  ( 0.000000000000000000, 0.000000000000000000, 0.03937007874015629322 ) ) ;
#192 = CARTESIAN_POINT ( 'NONE',  ( 0.07841235779216829127, -0.1338582677169834201, 0.000000000000000000 ) ) ;
#193 = ORIENTED_EDGE ( 'NONE', *, *, #57, .T. ) ;
#194 = CARTESIAN_POINT ( 'NONE',  ( -0.1338582677165354451, 3.058941704742382519E-13, 0.000000000000000000 ) ) ;
#195 = CARTESIAN_POINT ( 'NONE',  ( -0.1769860281500132138, 1.057184169331702576E-12, 0.03937007874015632097 ) ) ;
#196 = CARTESIAN_POINT ( 'NONE',  ( 0.1574323314918746886, -6.076978141660998881E-17, 0.07874015748031495954 ) ) ;
#197 = CARTESIAN_POINT ( 'NONE',  ( 0.1574323314946128038, 0.3148646629851167833, -7.093529892932646385E-18 ) ) ;
#198 = MANIFOLD_SOLID_BREP ( 'Imported1', #133 ) ;
#199 = CARTESIAN_POINT ( 'NONE',  ( 0.1338582677165354173, -5.166683000002164511E-17, 0.07874015748031495954 ) ) ;
#200 = PRODUCT_DEFINITION_CONTEXT ( 'detailed design', #141, 'design' ) ;
#201 = CARTESIAN_POINT ( 'NONE',  ( 0.1338582677165354173, -0.07841235779293304065, 8.537024980200822558E-18 ) ) ;
#202 = PRODUCT ( 'RTP-0090-020', 'RTP-0090-020', '', ( #42 ) ) ;
#203 = CARTESIAN_POINT ( 'NONE',  ( -0.1574323314918746886, 9.403627963595713028E-13, 0.07874015748031495954 ) ) ;
#204 = VERTEX_POINT ( 'NONE', #223 ) ;
#205 = CARTESIAN_POINT ( 'NONE',  ( 0.1338582677134763643, -0.2677165354315413914, 0.07874015748031498729 ) ) ;
#206 = DIRECTION ( 'NONE',  ( 1.000000000000000000, -1.142561999872837898E-11, 0.000000000000000000 ) ) ;
#207 = SURFACE_STYLE_FILL_AREA ( #105 ) ;
#208 = CARTESIAN_POINT ( 'NONE',  ( -0.1338582677165354173, 2.867906829286213703E-17, 0.04330708661417323468 ) ) ;
#209 = ORIENTED_EDGE ( 'NONE', *, *, #22, .T. ) ;
#210 = DIRECTION ( 'NONE',  ( -0.000000000000000000, -0.000000000000000000, -1.000000000000000000 ) ) ;
#211 =( NAMED_UNIT ( * ) PLANE_ANGLE_UNIT ( ) SI_UNIT ( $, .RADIAN. ) );
#212 = CARTESIAN_POINT ( 'NONE',  ( -0.1769860281511975997, -0.1036760149381786567, 0.03937007874015688996 ) ) ;
#213 = CARTESIAN_POINT ( 'NONE',  ( 0.1748429314431634296, -1.521020948052729050E-12, 0.01589363055503247371 ) ) ;
#214 = CARTESIAN_POINT ( 'NONE',  ( -7.647211853113590366E-13, -0.1338582677165354173, 8.537024980200822558E-18 ) ) ;
#215 = CARTESIAN_POINT ( 'NONE',  ( -0.1769860281500129362, 0.3539720563031052980, 0.03937007874015630016 ) ) ;
#216 = PRODUCT_RELATED_PRODUCT_CATEGORY ( 'part', '', ( #202 ) ) ;
#217 = MECHANICAL_DESIGN_GEOMETRIC_PRESENTATION_REPRESENTATION (  '', ( #128 ), #261 ) ;
#218 = CARTESIAN_POINT ( 'NONE',  ( -0.1748429314443339655, -0.1024206179528022870, 0.01589363055503278249 ) ) ;
#219 = CARTESIAN_POINT ( 'NONE',  ( -0.09222172463323993763, -0.1574323314913470551, 9.980520067469014138E-18 ) ) ;
#220 = CARTESIAN_POINT ( 'NONE',  ( 0.1748429314431648174, 0.3496858628842408612, 0.06284652692528130968 ) ) ;
#221 = EDGE_CURVE ( 'NONE', #89, #19, #247, .T. ) ;
#222 = AXIS2_PLACEMENT_3D ( 'NONE', #101, #151, #148 ) ;
#223 = CARTESIAN_POINT ( 'NONE',  ( 0.1769860281500129917, -1.516631260919396278E-12, 0.03937007874015688302 ) ) ;
#224 =( NAMED_UNIT ( * ) SI_UNIT ( $, .STERADIAN. ) SOLID_ANGLE_UNIT ( ) );
#225 = EDGE_LOOP ( 'NONE', ( #66, #249, #146, #11 ) ) ;
#226 = SURFACE_SIDE_STYLE ('',( #207 ) ) ;
#227 = CARTESIAN_POINT ( 'NONE',  ( -0.07841235779369774839, -0.1338582677160874979, 0.000000000000000000 ) ) ;
#228 = ADVANCED_FACE ( 'NONE', ( #77 ), #259, .F. ) ;
#229 = PRESENTATION_LAYER_ASSIGNMENT (  '', '', ( #33 ) ) ;
#230 = CARTESIAN_POINT ( 'NONE',  ( -0.1338582677174313673, -0.07841235779140359741, 0.000000000000000000 ) ) ;
#231 = CARTESIAN_POINT ( 'NONE',  ( -0.1338582677165354451, 6.117856464499670683E-13, 0.07874015748031495954 ) ) ;
#232 = CARTESIAN_POINT ( 'NONE',  ( -0.1338582677165354451, 0.07841235779293305452, 0.000000000000000000 ) ) ;
#233 = CARTESIAN_POINT ( 'NONE',  ( 0.1748429314431637072, -0.1024206179548000223, 0.01589363055503278249 ) ) ;
#234 = CARTESIAN_POINT ( 'NONE',  ( 0.1769860281530923340, 0.3539720563015655297, 0.03937007874015630016 ) ) ;
#235 = CARTESIAN_POINT ( 'NONE',  ( -0.1574323314918736894, 3.387482669268256826E-17, -7.093529892932646385E-18 ) ) ;
#236 = PRODUCT_DEFINITION_FORMATION_WITH_SPECIFIED_SOURCE ( 'ANY', '', #202, .NOT_KNOWN. ) ;
#237 = CARTESIAN_POINT ( 'NONE',  ( 0.1338582677188644154, 0.2677165354342352921, -8.537024980200822558E-18 ) ) ;
#238 = DIRECTION ( 'NONE',  ( 0.000000000000000000, 0.000000000000000000, 1.000000000000000000 ) ) ;
#239 = SURFACE_STYLE_FILL_AREA ( #78 ) ;
#240 = CARTESIAN_POINT ( 'NONE',  ( 0.000000000000000000, 0.000000000000000000, 0.07874015748031495954 ) ) ;
#241 = AXIS2_PLACEMENT_3D ( 'NONE', #16, #62, #206 ) ;
#242 = DIRECTION ( 'NONE',  ( -1.000000000000000000, 1.142577438911773607E-11, 0.000000000000000000 ) ) ;
#243 = ADVANCED_FACE ( 'NONE', ( #165 ), #140, .T. ) ;
#244 = AXIS2_PLACEMENT_3D ( 'NONE', #208, #103, #24 ) ;
#245 = ORIENTED_EDGE ( 'NONE', *, *, #107, .T. ) ;
#246 = SURFACE_STYLE_USAGE ( .BOTH. , #226 ) ;
#247 =( BOUNDED_CURVE ( )  B_SPLINE_CURVE ( 3, ( #260, #205, #97, #184 ),
 .UNSPECIFIED., .F., .F. ) 
 B_SPLINE_CURVE_WITH_KNOTS ( ( 4, 4 ),
 ( 0.000000000000000000, 1.000000000000000000 ),
 .UNSPECIFIED. ) 
 CURVE ( )  GEOMETRIC_REPRESENTATION_ITEM ( )  RATIONAL_B_SPLINE_CURVE ( ( 1.000000000000000000, 0.3333333333371422125, 0.3333333333371422125, 1.000000000000000000 ) ) 
 REPRESENTATION_ITEM ( '' )  );
#248 = EDGE_LOOP ( 'NONE', ( #173, #245, #84, #35 ) ) ;
#249 = ORIENTED_EDGE ( 'NONE', *, *, #221, .T. ) ;
#250 = CARTESIAN_POINT ( 'NONE',  ( 0.1338582677165354451, -6.117711601857037343E-13, 0.000000000000000000 ) ) ;
#251 = ORIENTED_EDGE ( 'NONE', *, *, #67, .T. ) ;
#252 = CARTESIAN_POINT ( 'NONE',  ( 0.1338582677165353341, -0.2677165354346699999, 0.07874015748031495954 ) ) ;
#253 = PRESENTATION_LAYER_ASSIGNMENT (  '', '', ( #128 ) ) ;
#254 = CARTESIAN_POINT ( 'NONE',  ( 0.09222172463144115429, -0.1574323314924007955, 9.980520067469014138E-18 ) ) ;
#255 = FACE_OUTER_BOUND ( 'NONE', #225, .T. ) ;
#256 = CARTESIAN_POINT ( 'NONE',  ( 0.1338582677165354173, -2.874299709736630221E-17, 8.537024980200822558E-18 ) ) ;
#257 = DIRECTION ( 'NONE',  ( 1.000000000000000000, 0.000000000000000000, 0.000000000000000000 ) ) ;
#258 = CARTESIAN_POINT ( 'NONE',  ( 0.1338582677165354451, 0.2677165354314717249, 0.07874015748031495954 ) ) ;
#259 = PLANE ( 'NONE',  #50 ) ;
#260 = CARTESIAN_POINT ( 'NONE',  ( 0.1338582677165354451, -3.058987724642666128E-13, 0.07874015748031495954 ) ) ;
#261 =( GEOMETRIC_REPRESENTATION_CONTEXT ( 3 ) GLOBAL_UNCERTAINTY_ASSIGNED_CONTEXT ( ( #6 ) ) GLOBAL_UNIT_ASSIGNED_CONTEXT ( ( #147, #211, #86 ) ) REPRESENTATION_CONTEXT ( 'NONE', 'WORKASPACE' ) );
#262 = CARTESIAN_POINT ( 'NONE',  ( 0.1338582677165354451, -0.07841235779293305452, 0.000000000000000000 ) ) ;
#263 = APPLICATION_PROTOCOL_DEFINITION ( 'draft international standard', 'automotive_design', 1998, #141 ) ;
#264 = EDGE_LOOP ( 'NONE', ( #267, #167 ) ) ;
#265 = CARTESIAN_POINT ( 'NONE',  ( -0.1769860281500130750, 1.011113339518537414E-12, 0.03937007874015629322 ) ) ;
#266 =( LENGTH_UNIT ( ) NAMED_UNIT ( * ) SI_UNIT ( $, .METRE. ) );
#267 = ORIENTED_EDGE ( 'NONE', *, *, #107, .F. ) ;
#268 = CARTESIAN_POINT ( 'NONE',  ( -0.1338582677165353896, 0.2677165354353998050, -8.537024980200822558E-18 ) ) ;
#269 =( BOUNDED_SURFACE ( )  B_SPLINE_SURFACE ( 3, 3, ( 
 ( #40, #212, #108, #176, #47, #134, #3 ),
 ( #28, #218, #180, #93, #73, #233, #51 ),
 ( #115, #136, #219, #72, #254, #46, #177 ),
 ( #31, #163, #157, #214, #30, #201, #256 ) ),
 .UNSPECIFIED., .F., .F., .T. ) 
 B_SPLINE_SURFACE_WITH_KNOTS ( ( 4, 4 ),
 ( 4, 3, 4 ),
 ( 0.000000000000000000, 1.000000000000000000 ),
 ( 0.000000000000000000, 0.5000000000000000000, 1.000000000000000000 ),
 .UNSPECIFIED. ) 
 GEOMETRIC_REPRESENTATION_ITEM ( )  RATIONAL_B_SPLINE_SURFACE ( (
 ( 1.000000000000000000, 0.8047378541230184590, 0.8047378541230184590, 1.000000000000000000, 0.8047378541230184590, 0.8047378541230184590, 1.000000000000000000),
 ( 0.8256992972506673745, 0.6644714806203864121, 0.6644714806203864121, 0.8256992972506673745, 0.6644714806203864121, 0.6644714806203864121, 0.8256992972506673745),
 ( 0.8256992972506673745, 0.6644714806203864121, 0.6644714806203864121, 0.8256992972506673745, 0.6644714806203864121, 0.6644714806203864121, 0.8256992972506673745),
 ( 1.000000000000000000, 0.8047378541230184590, 0.8047378541230184590, 1.000000000000000000, 0.8047378541230184590, 0.8047378541230184590, 1.000000000000000000) ) ) 
 REPRESENTATION_ITEM ( '' )  SURFACE ( )  );
ENDSEC;
END-ISO-10303-21;
