ISO-10303-21;
HEADER;
FILE_DESCRIPTION (( 'STEP AP214' ),
    '1' );
FILE_NAME ('PTP5M3CB-B.STEP',
    '2024-07-11T15:39:59',
    ( '' ),
    ( '' ),
    'SwSTEP 2.0',
    'SolidWorks 2023',
    '' );
FILE_SCHEMA (( 'AUTOMOTIVE_DESIGN' ));
ENDSEC;

DATA;
#1 = SURFACE_STYLE_FILL_AREA ( #136 ) ;
#2 = CIRCLE ( 'NONE', #183, 1.599999999999993872 ) ;
#3 = DIRECTION ( 'NONE',  ( 0.000000000000000000, 1.000000000000000000, 0.000000000000000000 ) ) ;
#4 = DIRECTION ( 'NONE',  ( 0.000000000000000000, 0.000000000000000000, 1.000000000000000000 ) ) ;
#5 = DIRECTION ( 'NONE',  ( 0.000000000000000000, 0.000000000000000000, -1.000000000000000000 ) ) ;
#6 = AXIS2_PLACEMENT_3D ( 'NONE', #142, #173, #39 ) ;
#7 = AXIS2_PLACEMENT_3D ( 'NONE', #181, #229, #18 ) ;
#8 = DIRECTION ( 'NONE',  ( 0.000000000000000000, 0.000000000000000000, -1.000000000000000000 ) ) ;
#9 = PRODUCT_DEFINITION ( 'UNKNOWN', '', #176, #217 ) ;
#10 = DIRECTION ( 'NONE',  ( 0.000000000000000000, -0.000000000000000000, 1.000000000000000000 ) ) ;
#11 = CYLINDRICAL_SURFACE ( 'NONE', #288, 1.750000000000000000 ) ;
#12 = CIRCLE ( 'NONE', #294, 2.500000000000000000 ) ;
#13 = FACE_OUTER_BOUND ( 'NONE', #240, .T. ) ;
#14 = EDGE_CURVE ( 'NONE', #74, #74, #63, .T. ) ;
#15 = ORIENTED_EDGE ( 'NONE', *, *, #34, .F. ) ;
#16 = CARTESIAN_POINT ( 'NONE',  ( 0.000000000000000000, 11.87500000000000000, 1.785145363490174608 ) ) ;
#17 = DIRECTION ( 'NONE',  ( 0.000000000000000000, 1.000000000000000000, 0.000000000000000000 ) ) ;
#18 = DIRECTION ( 'NONE',  ( 0.000000000000000000, 0.000000000000000000, -1.000000000000000000 ) ) ;
#19 = EDGE_LOOP ( 'NONE', ( #79 ) ) ;
#20 = ADVANCED_FACE ( 'NONE', ( #122, #212 ), #230, .F. ) ;
#21 = VERTEX_POINT ( 'NONE', #154 ) ;
#22 = EDGE_LOOP ( 'NONE', ( #187 ) ) ;
#23 = ORIENTED_EDGE ( 'NONE', *, *, #55, .F. ) ;
#24 = CIRCLE ( 'NONE', #280, 2.000000000000000000 ) ;
#25 = ADVANCED_FACE ( 'NONE', ( #287, #317 ), #165, .T. ) ;
#26 = EDGE_LOOP ( 'NONE', ( #23 ) ) ;
#27 = DIRECTION ( 'NONE',  ( 0.000000000000000000, 0.000000000000000000, 1.000000000000000000 ) ) ;
#28 = CARTESIAN_POINT ( 'NONE',  ( 0.000000000000000000, 13.89999999999998792, 0.000000000000000000 ) ) ;
#29 = AXIS2_PLACEMENT_3D ( 'NONE', #59, #220, #268 ) ;
#30 = PRODUCT_RELATED_PRODUCT_CATEGORY ( 'part', '', ( #117 ) ) ;
#31 = DIRECTION ( 'NONE',  ( 0.000000000000000000, 0.000000000000000000, 1.000000000000000000 ) ) ;
#32 = APPLICATION_CONTEXT ( 'automotive_design' ) ;
#33 = FACE_OUTER_BOUND ( 'NONE', #315, .T. ) ;
#34 = EDGE_CURVE ( 'NONE', #335, #335, #135, .T. ) ;
#35 = AXIS2_PLACEMENT_3D ( 'NONE', #89, #115, #5 ) ;
#36 = DIRECTION ( 'NONE',  ( 0.000000000000000000, 0.000000000000000000, -1.000000000000000000 ) ) ;
#37 = MANIFOLD_SOLID_BREP ( 'Boss-Extrude13', #267 ) ;
#38 = FACE_BOUND ( 'NONE', #159, .T. ) ;
#39 = DIRECTION ( 'NONE',  ( 0.000000000000000000, -0.000000000000000000, -1.000000000000000000 ) ) ;
#40 = CIRCLE ( 'NONE', #271, 1.750000000000000000 ) ;
#41 = CARTESIAN_POINT ( 'NONE',  ( 0.000000000000000000, -7.750000000000000000, 0.000000000000000000 ) ) ;
#42 = VERTEX_POINT ( 'NONE', #16 ) ;
#43 = ORIENTED_EDGE ( 'NONE', *, *, #14, .T. ) ;
#44 = CARTESIAN_POINT ( 'NONE',  ( 0.000000000000000000, 15.37500000000000000, 1.599999999999993872 ) ) ;
#45 = CARTESIAN_POINT ( 'NONE',  ( 0.000000000000000000, 11.87500000000000000, 0.000000000000000000 ) ) ;
#46 = CIRCLE ( 'NONE', #116, 1.599999999999993872 ) ;
#47 = ORIENTED_EDGE ( 'NONE', *, *, #145, .F. ) ;
#48 = CARTESIAN_POINT ( 'NONE',  ( 0.000000000000000000, 0.000000000000000000, 0.000000000000000000 ) ) ;
#49 = EDGE_LOOP ( 'NONE', ( #75 ) ) ;
#50 = ADVANCED_BREP_SHAPE_REPRESENTATION ( 'PTP5M3CB-B', ( #37, #201 ), #325 ) ;
#51 = EDGE_LOOP ( 'NONE', ( #95 ) ) ;
#52 = AXIS2_PLACEMENT_3D ( 'NONE', #111, #249, #326 ) ;
#53 = DIRECTION ( 'NONE',  ( 0.000000000000000000, 0.000000000000000000, 1.000000000000000000 ) ) ;
#54 = DIRECTION ( 'NONE',  ( 0.000000000000000000, 0.000000000000000000, 1.000000000000000000 ) ) ;
#55 = EDGE_CURVE ( 'NONE', #76, #76, #12, .T. ) ;
#56 = CARTESIAN_POINT ( 'NONE',  ( 0.000000000000000000, 7.750000000000000000, 0.000000000000000000 ) ) ;
#57 = AXIS2_PLACEMENT_3D ( 'NONE', #163, #83, #27 ) ;
#58 = AXIS2_PLACEMENT_3D ( 'NONE', #141, #198, #308 ) ;
#59 = CARTESIAN_POINT ( 'NONE',  ( 0.000000000000000000, -16.75000000000000000, 0.000000000000000000 ) ) ;
#60 = DIRECTION ( 'NONE',  ( 0.000000000000000000, -0.000000000000000000, 1.000000000000000000 ) ) ;
#61 = EDGE_LOOP ( 'NONE', ( #234 ) ) ;
#62 = DIRECTION ( 'NONE',  ( 0.000000000000000000, -0.000000000000000000, 1.000000000000000000 ) ) ;
#63 = CIRCLE ( 'NONE', #140, 2.500000000000000000 ) ;
#64 = FACE_OUTER_BOUND ( 'NONE', #155, .T. ) ;
#65 = FACE_OUTER_BOUND ( 'NONE', #61, .T. ) ;
#66 = EDGE_CURVE ( 'NONE', #177, #177, #24, .T. ) ;
#67 = DIRECTION ( 'NONE',  ( 0.000000000000000000, 1.000000000000000000, 0.000000000000000000 ) ) ;
#68 = CIRCLE ( 'NONE', #101, 1.600000000000000089 ) ;
#69 = VERTEX_POINT ( 'NONE', #289 ) ;
#70 = ORIENTED_EDGE ( 'NONE', *, *, #82, .T. ) ;
#71 = EDGE_CURVE ( 'NONE', #205, #205, #330, .T. ) ;
#72 = PLANE ( 'NONE',  #208 ) ;
#73 = DIRECTION ( 'NONE',  ( 0.000000000000000000, -0.000000000000000000, 1.000000000000000000 ) ) ;
#74 = VERTEX_POINT ( 'NONE', #148 ) ;
#75 = ORIENTED_EDGE ( 'NONE', *, *, #196, .F. ) ;
#76 = VERTEX_POINT ( 'NONE', #254 ) ;
#77 = EDGE_LOOP ( 'NONE', ( #70 ) ) ;
#78 = VERTEX_POINT ( 'NONE', #256 ) ;
#79 = ORIENTED_EDGE ( 'NONE', *, *, #14, .F. ) ;
#80 =( NAMED_UNIT ( * ) PLANE_ANGLE_UNIT ( ) SI_UNIT ( $, .RADIAN. ) );
#81 = DIRECTION ( 'NONE',  ( 0.000000000000000000, 1.000000000000000000, 0.000000000000000000 ) ) ;
#82 = EDGE_CURVE ( 'NONE', #311, #311, #193, .T. ) ;
#83 = DIRECTION ( 'NONE',  ( 0.000000000000000000, 1.000000000000000000, 0.000000000000000000 ) ) ;
#84 = CYLINDRICAL_SURFACE ( 'NONE', #226, 2.000000000000000000 ) ;
#85 = AXIS2_PLACEMENT_3D ( 'NONE', #296, #270, #174 ) ;
#86 = ADVANCED_FACE ( 'NONE', ( #164, #108 ), #189, .T. ) ;
#87 = CARTESIAN_POINT ( 'NONE',  ( 0.000000000000000000, -16.75000000000000000, 0.000000000000000000 ) ) ;
#88 = DIRECTION ( 'NONE',  ( 0.000000000000000000, 0.000000000000000000, 1.000000000000000000 ) ) ;
#89 = CARTESIAN_POINT ( 'NONE',  ( 0.000000000000000000, 7.750000000000000000, 0.000000000000000000 ) ) ;
#90 = DIRECTION ( 'NONE',  ( 0.000000000000000000, 0.000000000000000000, 1.000000000000000000 ) ) ;
#91 = EDGE_CURVE ( 'NONE', #97, #97, #310, .T. ) ;
#92 = FACE_OUTER_BOUND ( 'NONE', #77, .T. ) ;
#93 = ORIENTED_EDGE ( 'NONE', *, *, #145, .T. ) ;
#94 = CARTESIAN_POINT ( 'NONE',  ( 0.000000000000000000, -16.75000000000000000, -1.750000000000000000 ) ) ;
#95 = ORIENTED_EDGE ( 'NONE', *, *, #196, .T. ) ;
#96 = ADVANCED_FACE ( 'NONE', ( #132, #241 ), #84, .T. ) ;
#97 = VERTEX_POINT ( 'NONE', #286 ) ;
#98 = EDGE_LOOP ( 'NONE', ( #131 ) ) ;
#99 = EDGE_LOOP ( 'NONE', ( #100 ) ) ;
#100 = ORIENTED_EDGE ( 'NONE', *, *, #82, .F. ) ;
#101 = AXIS2_PLACEMENT_3D ( 'NONE', #194, #81, #299 ) ;
#102 = CARTESIAN_POINT ( 'NONE',  ( 0.000000000000000000, 10.25000000000000000, 2.149999999999999911 ) ) ;
#103 = DIRECTION ( 'NONE',  ( 0.000000000000000000, 1.000000000000000000, 0.000000000000000000 ) ) ;
#104 = SURFACE_STYLE_USAGE ( .BOTH. , #272 ) ;
#105 = FILL_AREA_STYLE_COLOUR ( '', #303 ) ;
#106 = EDGE_CURVE ( 'NONE', #211, #211, #2, .T. ) ;
#107 = AXIS2_PLACEMENT_3D ( 'NONE', #167, #295, #54 ) ;
#108 = FACE_OUTER_BOUND ( 'NONE', #209, .T. ) ;
#109 = DIRECTION ( 'NONE',  ( 0.000000000000000000, 1.000000000000000000, 0.000000000000000000 ) ) ;
#110 = ADVANCED_FACE ( 'NONE', ( #134, #323 ), #221, .T. ) ;
#111 = CARTESIAN_POINT ( 'NONE',  ( 0.000000000000000000, 11.87500000000000000, 0.000000000000000000 ) ) ;
#112 = PLANE ( 'NONE',  #153 ) ;
#113 = DIRECTION ( 'NONE',  ( 0.000000000000000000, 0.000000000000000000, 1.000000000000000000 ) ) ;
#114 = EDGE_CURVE ( 'NONE', #78, #78, #68, .T. ) ;
#115 = DIRECTION ( 'NONE',  ( -0.000000000000000000, -1.000000000000000000, -0.000000000000000000 ) ) ;
#116 = AXIS2_PLACEMENT_3D ( 'NONE', #202, #277, #90 ) ;
#117 = PRODUCT ( 'PTP5M3CB-B', 'PTP5M3CB-B', '', ( #128 ) ) ;
#118 = CARTESIAN_POINT ( 'NONE',  ( 0.000000000000000000, 10.25000000000000000, 0.000000000000000000 ) ) ;
#119 = DIRECTION ( 'NONE',  ( 0.000000000000000000, 0.000000000000000000, 1.000000000000000000 ) ) ;
#120 = EDGE_LOOP ( 'NONE', ( #206 ) ) ;
#121 = CARTESIAN_POINT ( 'NONE',  ( 0.000000000000000000, 15.37500000000000000, 0.7500000000000001110 ) ) ;
#122 = FACE_BOUND ( 'NONE', #49, .T. ) ;
#123 = AXIS2_PLACEMENT_3D ( 'NONE', #151, #109, #192 ) ;
#124 =( LENGTH_UNIT ( ) NAMED_UNIT ( * ) SI_UNIT ( .MILLI., .METRE. ) );
#125 = EDGE_LOOP ( 'NONE', ( #158 ) ) ;
#126 = DIRECTION ( 'NONE',  ( 0.000000000000000000, -0.000000000000000000, 1.000000000000000000 ) ) ;
#127 = ORIENTED_EDGE ( 'NONE', *, *, #106, .F. ) ;
#128 = PRODUCT_CONTEXT ( 'NONE', #276, 'mechanical' ) ;
#129 = EDGE_LOOP ( 'NONE', ( #93 ) ) ;
#130 = CIRCLE ( 'NONE', #52, 1.785145363490174608 ) ;
#131 = ORIENTED_EDGE ( 'NONE', *, *, #71, .F. ) ;
#132 = FACE_OUTER_BOUND ( 'NONE', #169, .T. ) ;
#133 = UNCERTAINTY_MEASURE_WITH_UNIT (LENGTH_MEASURE( 1.000000000000000082E-05 ), #124, 'distance_accuracy_value', 'NONE');
#134 = FACE_OUTER_BOUND ( 'NONE', #338, .T. ) ;
#135 = CIRCLE ( 'NONE', #123, 1.600000000000000089 ) ;
#136 = FILL_AREA_STYLE ('',( #105 ) ) ;
#137 = PRESENTATION_STYLE_ASSIGNMENT (( #104 ) ) ;
#138 = CARTESIAN_POINT ( 'NONE',  ( 0.000000000000000000, 15.25000000000000000, 0.000000000000000000 ) ) ;
#139 = CARTESIAN_POINT ( 'NONE',  ( 0.000000000000000000, 17.25000000000000000, 0.000000000000000000 ) ) ;
#140 = AXIS2_PLACEMENT_3D ( 'NONE', #149, #17, #266 ) ;
#141 = CARTESIAN_POINT ( 'NONE',  ( 0.000000000000000000, 15.37500000000000000, 0.000000000000000000 ) ) ;
#142 = CARTESIAN_POINT ( 'NONE',  ( 0.000000000000000000, -16.75000000000000000, 0.000000000000000000 ) ) ;
#143 = FACE_OUTER_BOUND ( 'NONE', #120, .T. ) ;
#144 = AXIS2_PLACEMENT_3D ( 'NONE', #219, #244, #53 ) ;
#145 = EDGE_CURVE ( 'NONE', #150, #150, #207, .T. ) ;
#146 = VERTEX_POINT ( 'NONE', #213 ) ;
#147 = ORIENTED_EDGE ( 'NONE', *, *, #114, .F. ) ;
#148 = CARTESIAN_POINT ( 'NONE',  ( 0.000000000000000000, -7.750000000000000000, 2.500000000000000000 ) ) ;
#149 = CARTESIAN_POINT ( 'NONE',  ( 0.000000000000000000, -7.750000000000000000, 0.000000000000000000 ) ) ;
#150 = VERTEX_POINT ( 'NONE', #259 ) ;
#151 = CARTESIAN_POINT ( 'NONE',  ( 0.000000000000000000, 10.25000000000000000, 0.000000000000000000 ) ) ;
#152 = AXIS2_PLACEMENT_3D ( 'NONE', #243, #321, #190 ) ;
#153 = AXIS2_PLACEMENT_3D ( 'NONE', #225, #332, #60 ) ;
#154 = CARTESIAN_POINT ( 'NONE',  ( 0.000000000000000000, 15.25000000000000000, 1.599999999999993872 ) ) ;
#155 = EDGE_LOOP ( 'NONE', ( #43 ) ) ;
#156 = ADVANCED_FACE ( 'NONE', ( #242, #191 ), #320, .T. ) ;
#157 = APPLICATION_PROTOCOL_DEFINITION ( 'draft international standard', 'automotive_design', 1998, #32 ) ;
#158 = ORIENTED_EDGE ( 'NONE', *, *, #114, .T. ) ;
#159 = EDGE_LOOP ( 'NONE', ( #15 ) ) ;
#160 = AXIS2_PLACEMENT_3D ( 'NONE', #345, #343, #322 ) ;
#161 = ADVANCED_FACE ( 'NONE', ( #224, #13 ), #304, .T. ) ;
#162 = DIRECTION ( 'NONE',  ( 0.000000000000000000, 1.000000000000000000, 0.000000000000000000 ) ) ;
#163 = CARTESIAN_POINT ( 'NONE',  ( 0.000000000000000000, 17.25000000000000000, 0.000000000000000000 ) ) ;
#164 = FACE_BOUND ( 'NONE', #125, .T. ) ;
#165 = CONICAL_SURFACE ( 'NONE', #231, 1.785145363490174608, 0.1134464013796316756 ) ;
#166 = CARTESIAN_POINT ( 'NONE',  ( 0.000000000000000000, 15.37500000000000000, 0.000000000000000000 ) ) ;
#167 = CARTESIAN_POINT ( 'NONE',  ( 0.000000000000000000, 14.84999999999999609, 0.000000000000000000 ) ) ;
#168 = PLANE ( 'NONE',  #199 ) ;
#169 = EDGE_LOOP ( 'NONE', ( #238 ) ) ;
#170 = DIRECTION ( 'NONE',  ( 0.000000000000000000, -1.000000000000000000, 0.000000000000000000 ) ) ;
#171 = ADVANCED_FACE ( 'NONE', ( #38, #33 ), #168, .T. ) ;
#172 = FACE_OUTER_BOUND ( 'NONE', #265, .T. ) ;
#173 = DIRECTION ( 'NONE',  ( 0.000000000000000000, -1.000000000000000000, 0.000000000000000000 ) ) ;
#174 = DIRECTION ( 'NONE',  ( 0.000000000000000000, 0.000000000000000000, -1.000000000000000000 ) ) ;
#175 =( GEOMETRIC_REPRESENTATION_CONTEXT ( 3 ) GLOBAL_UNCERTAINTY_ASSIGNED_CONTEXT ( ( #301 ) ) GLOBAL_UNIT_ASSIGNED_CONTEXT ( ( #218, #80, #297 ) ) REPRESENTATION_CONTEXT ( 'NONE', 'WORKASPACE' ) );
#176 = PRODUCT_DEFINITION_FORMATION_WITH_SPECIFIED_SOURCE ( 'ANY', '', #117, .NOT_KNOWN. ) ;
#177 = VERTEX_POINT ( 'NONE', #264 ) ;
#178 = ORIENTED_EDGE ( 'NONE', *, *, #328, .F. ) ;
#179 = DIRECTION ( 'NONE',  ( 0.000000000000000000, 1.000000000000000000, 0.000000000000000000 ) ) ;
#180 = ORIENTED_EDGE ( 'NONE', *, *, #106, .T. ) ;
#181 = CARTESIAN_POINT ( 'NONE',  ( 0.000000000000000000, 15.37500000000000000, 0.000000000000000000 ) ) ;
#182 = ORIENTED_EDGE ( 'NONE', *, *, #210, .F. ) ;
#183 = AXIS2_PLACEMENT_3D ( 'NONE', #166, #3, #4 ) ;
#184 = VERTEX_POINT ( 'NONE', #121 ) ;
#185 = DIRECTION ( 'NONE',  ( 0.000000000000000000, 0.000000000000000000, 1.000000000000000000 ) ) ;
#186 = DIRECTION ( 'NONE',  ( 1.000000000000000000, 0.000000000000000000, 0.000000000000000000 ) ) ;
#187 = ORIENTED_EDGE ( 'NONE', *, *, #278, .F. ) ;
#188 = DIRECTION ( 'NONE',  ( 0.000000000000000000, 0.000000000000000000, 1.000000000000000000 ) ) ;
#189 = CONICAL_SURFACE ( 'NONE', #152, 2.000000000000000000, 0.7853981633974526089 ) ;
#190 = DIRECTION ( 'NONE',  ( 0.000000000000000000, 0.000000000000000000, 1.000000000000000000 ) ) ;
#191 = FACE_BOUND ( 'NONE', #228, .T. ) ;
#192 = DIRECTION ( 'NONE',  ( 0.000000000000000000, 0.000000000000000000, 1.000000000000000000 ) ) ;
#193 = CIRCLE ( 'NONE', #29, 1.750000000000000000 ) ;
#194 = CARTESIAN_POINT ( 'NONE',  ( 0.000000000000000000, 13.50000000000000000, 0.000000000000000000 ) ) ;
#195 = DIRECTION ( 'NONE',  ( -0.000000000000000000, -1.000000000000000000, -0.000000000000000000 ) ) ;
#196 = EDGE_CURVE ( 'NONE', #69, #69, #40, .T. ) ;
#197 = FACE_OUTER_BOUND ( 'NONE', #204, .T. ) ;
#198 = DIRECTION ( 'NONE',  ( 0.000000000000000000, 1.000000000000000000, 0.000000000000000000 ) ) ;
#199 = AXIS2_PLACEMENT_3D ( 'NONE', #118, #275, #62 ) ;
#200 = PRODUCT_DEFINITION_SHAPE ( 'NONE', 'NONE',  #9 ) ;
#201 = AXIS2_PLACEMENT_3D ( 'NONE', #48, #119, #186 ) ;
#202 = CARTESIAN_POINT ( 'NONE',  ( 0.000000000000000000, 15.25000000000000000, 0.000000000000000000 ) ) ;
#203 = PLANE ( 'NONE',  #6 ) ;
#204 = EDGE_LOOP ( 'NONE', ( #127 ) ) ;
#205 = VERTEX_POINT ( 'NONE', #102 ) ;
#206 = ORIENTED_EDGE ( 'NONE', *, *, #278, .T. ) ;
#207 = CIRCLE ( 'NONE', #107, 2.000000000000000000 ) ;
#208 = AXIS2_PLACEMENT_3D ( 'NONE', #341, #179, #126 ) ;
#209 = EDGE_LOOP ( 'NONE', ( #283 ) ) ;
#210 = EDGE_CURVE ( 'NONE', #21, #21, #46, .T. ) ;
#211 = VERTEX_POINT ( 'NONE', #44 ) ;
#212 = FACE_OUTER_BOUND ( 'NONE', #19, .T. ) ;
#213 = CARTESIAN_POINT ( 'NONE',  ( 0.000000000000000000, 7.750000000000000000, 2.149999999999999911 ) ) ;
#214 = ORIENTED_EDGE ( 'NONE', *, *, #34, .T. ) ;
#215 = ORIENTED_EDGE ( 'NONE', *, *, #328, .T. ) ;
#216 = ADVANCED_FACE ( 'NONE', ( #92 ), #203, .T. ) ;
#217 = PRODUCT_DEFINITION_CONTEXT ( 'detailed design', #32, 'design' ) ;
#218 =( LENGTH_UNIT ( ) NAMED_UNIT ( * ) SI_UNIT ( .MILLI., .METRE. ) );
#219 = CARTESIAN_POINT ( 'NONE',  ( 0.000000000000000000, 10.25000000000000000, 0.000000000000000000 ) ) ;
#220 = DIRECTION ( 'NONE',  ( 0.000000000000000000, -1.000000000000000000, 0.000000000000000000 ) ) ;
#221 = CONICAL_SURFACE ( 'NONE', #160, 1.600000000000000089, 0.1134464013796316756 ) ;
#222 = PLANE ( 'NONE',  #312 ) ;
#223 = CARTESIAN_POINT ( 'NONE',  ( 0.000000000000000000, 7.750000000000000000, 0.000000000000000000 ) ) ;
#224 = FACE_OUTER_BOUND ( 'NONE', #98, .T. ) ;
#225 = CARTESIAN_POINT ( 'NONE',  ( 0.000000000000000000, 15.37500000000000000, 0.000000000000000000 ) ) ;
#226 = AXIS2_PLACEMENT_3D ( 'NONE', #138, #269, #319 ) ;
#227 = FACE_OUTER_BOUND ( 'NONE', #99, .T. ) ;
#228 = EDGE_LOOP ( 'NONE', ( #182 ) ) ;
#229 = DIRECTION ( 'NONE',  ( -0.000000000000000000, -1.000000000000000000, -0.000000000000000000 ) ) ;
#230 = PLANE ( 'NONE',  #252 ) ;
#231 = AXIS2_PLACEMENT_3D ( 'NONE', #45, #285, #185 ) ;
#232 = EDGE_CURVE ( 'NONE', #42, #42, #130, .T. ) ;
#233 =( NAMED_UNIT ( * ) SI_UNIT ( $, .STERADIAN. ) SOLID_ANGLE_UNIT ( ) );
#234 = ORIENTED_EDGE ( 'NONE', *, *, #91, .T. ) ;
#235 =( NAMED_UNIT ( * ) PLANE_ANGLE_UNIT ( ) SI_UNIT ( $, .RADIAN. ) );
#236 = EDGE_LOOP ( 'NONE', ( #290 ) ) ;
#237 = FACE_OUTER_BOUND ( 'NONE', #307, .T. ) ;
#238 = ORIENTED_EDGE ( 'NONE', *, *, #66, .T. ) ;
#239 = MECHANICAL_DESIGN_GEOMETRIC_PRESENTATION_REPRESENTATION (  '', ( #324 ), #175 ) ;
#240 = EDGE_LOOP ( 'NONE', ( #215 ) ) ;
#241 = FACE_OUTER_BOUND ( 'NONE', #129, .T. ) ;
#242 = FACE_OUTER_BOUND ( 'NONE', #342, .T. ) ;
#243 = CARTESIAN_POINT ( 'NONE',  ( 0.000000000000000000, 13.89999999999998792, 0.000000000000000000 ) ) ;
#244 = DIRECTION ( 'NONE',  ( 0.000000000000000000, 1.000000000000000000, 0.000000000000000000 ) ) ;
#245 = CYLINDRICAL_SURFACE ( 'NONE', #35, 2.500000000000000000 ) ;
#246 = ADVANCED_FACE ( 'NONE', ( #333, #143 ), #281, .T. ) ;
#247 = AXIS2_PLACEMENT_3D ( 'NONE', #329, #195, #36 ) ;
#248 = FACE_OUTER_BOUND ( 'NONE', #26, .T. ) ;
#249 = DIRECTION ( 'NONE',  ( 0.000000000000000000, 1.000000000000000000, 0.000000000000000000 ) ) ;
#250 = FACE_OUTER_BOUND ( 'NONE', #51, .T. ) ;
#251 = DIRECTION ( 'NONE',  ( -0.000000000000000000, 1.000000000000000000, -0.000000000000000000 ) ) ;
#252 = AXIS2_PLACEMENT_3D ( 'NONE', #337, #103, #73 ) ;
#253 = CIRCLE ( 'NONE', #58, 0.7500000000000001110 ) ;
#254 = CARTESIAN_POINT ( 'NONE',  ( 0.000000000000000000, 7.750000000000000000, 2.500000000000000000 ) ) ;
#255 = ORIENTED_EDGE ( 'NONE', *, *, #91, .F. ) ;
#256 = CARTESIAN_POINT ( 'NONE',  ( 0.000000000000000000, 13.50000000000000000, 1.600000000000000089 ) ) ;
#257 = ORIENTED_EDGE ( 'NONE', *, *, #71, .T. ) ;
#258 = ADVANCED_FACE ( 'NONE', ( #227, #250 ), #11, .T. ) ;
#259 = CARTESIAN_POINT ( 'NONE',  ( 0.000000000000000000, 14.84999999999999609, 2.000000000000000000 ) ) ;
#260 = ORIENTED_EDGE ( 'NONE', *, *, #210, .T. ) ;
#261 = PRESENTATION_LAYER_ASSIGNMENT (  '', '', ( #324 ) ) ;
#262 = AXIS2_PLACEMENT_3D ( 'NONE', #223, #327, #88 ) ;
#263 = ORIENTED_EDGE ( 'NONE', *, *, #55, .T. ) ;
#264 = CARTESIAN_POINT ( 'NONE',  ( 0.000000000000000000, 13.89999999999998792, 2.000000000000000000 ) ) ;
#265 = EDGE_LOOP ( 'NONE', ( #180 ) ) ;
#266 = DIRECTION ( 'NONE',  ( 0.000000000000000000, 0.000000000000000000, 1.000000000000000000 ) ) ;
#267 = CLOSED_SHELL ( 'NONE', ( #273, #344, #20, #258, #216, #161, #171, #110, #25, #96, #86, #156, #339, #309, #246, #305 ) ) ;
#268 = DIRECTION ( 'NONE',  ( 0.000000000000000000, 0.000000000000000000, -1.000000000000000000 ) ) ;
#269 = DIRECTION ( 'NONE',  ( -0.000000000000000000, -1.000000000000000000, -0.000000000000000000 ) ) ;
#270 = DIRECTION ( 'NONE',  ( 0.000000000000000000, -1.000000000000000000, 0.000000000000000000 ) ) ;
#271 = AXIS2_PLACEMENT_3D ( 'NONE', #41, #170, #8 ) ;
#272 = SURFACE_SIDE_STYLE ('',( #1 ) ) ;
#273 = ADVANCED_FACE ( 'NONE', ( #248, #64 ), #245, .T. ) ;
#274 = DIRECTION ( 'NONE',  ( -0.000000000000000000, -1.000000000000000000, -0.000000000000000000 ) ) ;
#275 = DIRECTION ( 'NONE',  ( 0.000000000000000000, 1.000000000000000000, 0.000000000000000000 ) ) ;
#276 = APPLICATION_CONTEXT ( 'automotive_design' ) ;
#277 = DIRECTION ( 'NONE',  ( 0.000000000000000000, 1.000000000000000000, 0.000000000000000000 ) ) ;
#278 = EDGE_CURVE ( 'NONE', #184, #184, #253, .T. ) ;
#279 = DIRECTION ( 'NONE',  ( 0.000000000000000000, 0.000000000000000000, -1.000000000000000000 ) ) ;
#280 = AXIS2_PLACEMENT_3D ( 'NONE', #28, #293, #31 ) ;
#281 = CYLINDRICAL_SURFACE ( 'NONE', #247, 0.7500000000000001110 ) ;
#282 = FACE_BOUND ( 'NONE', #292, .T. ) ;
#283 = ORIENTED_EDGE ( 'NONE', *, *, #66, .F. ) ;
#284 = CARTESIAN_POINT ( 'NONE',  ( 0.000000000000000000, 10.25000000000000000, 1.600000000000000089 ) ) ;
#285 = DIRECTION ( 'NONE',  ( -0.000000000000000000, -1.000000000000000000, -0.000000000000000000 ) ) ;
#286 = CARTESIAN_POINT ( 'NONE',  ( 0.000000000000000000, 17.25000000000000000, 0.7500000000000001110 ) ) ;
#287 = FACE_BOUND ( 'NONE', #334, .T. ) ;
#288 = AXIS2_PLACEMENT_3D ( 'NONE', #87, #251, #113 ) ;
#289 = CARTESIAN_POINT ( 'NONE',  ( 0.000000000000000000, -7.750000000000000000, -1.750000000000000000 ) ) ;
#290 = ORIENTED_EDGE ( 'NONE', *, *, #232, .T. ) ;
#291 = SHAPE_DEFINITION_REPRESENTATION ( #200, #50 ) ;
#292 = EDGE_LOOP ( 'NONE', ( #178 ) ) ;
#293 = DIRECTION ( 'NONE',  ( -0.000000000000000000, 1.000000000000000000, -0.000000000000000000 ) ) ;
#294 = AXIS2_PLACEMENT_3D ( 'NONE', #56, #162, #188 ) ;
#295 = DIRECTION ( 'NONE',  ( 0.000000000000000000, -1.000000000000000000, 0.000000000000000000 ) ) ;
#296 = CARTESIAN_POINT ( 'NONE',  ( 0.000000000000000000, 15.25000000000000000, 0.000000000000000000 ) ) ;
#297 =( NAMED_UNIT ( * ) SI_UNIT ( $, .STERADIAN. ) SOLID_ANGLE_UNIT ( ) );
#298 = AXIS2_PLACEMENT_3D ( 'NONE', #306, #274, #279 ) ;
#299 = DIRECTION ( 'NONE',  ( 0.000000000000000000, 0.000000000000000000, 1.000000000000000000 ) ) ;
#300 = FACE_BOUND ( 'NONE', #22, .T. ) ;
#301 = UNCERTAINTY_MEASURE_WITH_UNIT (LENGTH_MEASURE( 1.000000000000000082E-05 ), #218, 'distance_accuracy_value', 'NONE');
#302 = FACE_OUTER_BOUND ( 'NONE', #313, .T. ) ;
#303 = COLOUR_RGB ( '',0.7921568627450980005, 0.8196078431372548767, 0.9333333333333333481 ) ;
#304 = CYLINDRICAL_SURFACE ( 'NONE', #298, 2.149999999999999911 ) ;
#305 = ADVANCED_FACE ( 'NONE', ( #65 ), #222, .T. ) ;
#306 = CARTESIAN_POINT ( 'NONE',  ( 0.000000000000000000, 10.25000000000000000, 0.000000000000000000 ) ) ;
#307 = EDGE_LOOP ( 'NONE', ( #263 ) ) ;
#308 = DIRECTION ( 'NONE',  ( 0.000000000000000000, 0.000000000000000000, 1.000000000000000000 ) ) ;
#309 = ADVANCED_FACE ( 'NONE', ( #300, #172 ), #112, .T. ) ;
#310 = CIRCLE ( 'NONE', #57, 0.7500000000000001110 ) ;
#311 = VERTEX_POINT ( 'NONE', #94 ) ;
#312 = AXIS2_PLACEMENT_3D ( 'NONE', #139, #67, #10 ) ;
#313 = EDGE_LOOP ( 'NONE', ( #260 ) ) ;
#314 = EDGE_LOOP ( 'NONE', ( #255 ) ) ;
#315 = EDGE_LOOP ( 'NONE', ( #257 ) ) ;
#316 = APPLICATION_PROTOCOL_DEFINITION ( 'draft international standard', 'automotive_design', 1998, #276 ) ;
#317 = FACE_OUTER_BOUND ( 'NONE', #236, .T. ) ;
#318 = ORIENTED_EDGE ( 'NONE', *, *, #232, .F. ) ;
#319 = DIRECTION ( 'NONE',  ( 0.000000000000000000, 0.000000000000000000, -1.000000000000000000 ) ) ;
#320 = CONICAL_SURFACE ( 'NONE', #85, 1.599999999999993872, 0.7853981633974526089 ) ;
#321 = DIRECTION ( 'NONE',  ( -0.000000000000000000, 1.000000000000000000, -0.000000000000000000 ) ) ;
#322 = DIRECTION ( 'NONE',  ( 0.000000000000000000, 0.000000000000000000, 1.000000000000000000 ) ) ;
#323 = FACE_BOUND ( 'NONE', #340, .T. ) ;
#324 = STYLED_ITEM ( 'NONE', ( #137 ), #37 ) ;
#325 =( GEOMETRIC_REPRESENTATION_CONTEXT ( 3 ) GLOBAL_UNCERTAINTY_ASSIGNED_CONTEXT ( ( #133 ) ) GLOBAL_UNIT_ASSIGNED_CONTEXT ( ( #124, #235, #233 ) ) REPRESENTATION_CONTEXT ( 'NONE', 'WORKASPACE' ) );
#326 = DIRECTION ( 'NONE',  ( 0.000000000000000000, 0.000000000000000000, 1.000000000000000000 ) ) ;
#327 = DIRECTION ( 'NONE',  ( 0.000000000000000000, 1.000000000000000000, 0.000000000000000000 ) ) ;
#328 = EDGE_CURVE ( 'NONE', #146, #146, #331, .T. ) ;
#329 = CARTESIAN_POINT ( 'NONE',  ( 0.000000000000000000, 17.25000000000000000, 0.000000000000000000 ) ) ;
#330 = CIRCLE ( 'NONE', #144, 2.149999999999999911 ) ;
#331 = CIRCLE ( 'NONE', #262, 2.149999999999999911 ) ;
#332 = DIRECTION ( 'NONE',  ( 0.000000000000000000, 1.000000000000000000, 0.000000000000000000 ) ) ;
#333 = FACE_OUTER_BOUND ( 'NONE', #314, .T. ) ;
#334 = EDGE_LOOP ( 'NONE', ( #147 ) ) ;
#335 = VERTEX_POINT ( 'NONE', #284 ) ;
#336 = CYLINDRICAL_SURFACE ( 'NONE', #7, 1.599999999999993872 ) ;
#337 = CARTESIAN_POINT ( 'NONE',  ( 0.000000000000000000, -7.750000000000000000, 0.000000000000000000 ) ) ;
#338 = EDGE_LOOP ( 'NONE', ( #318 ) ) ;
#339 = ADVANCED_FACE ( 'NONE', ( #197, #302 ), #336, .T. ) ;
#340 = EDGE_LOOP ( 'NONE', ( #214 ) ) ;
#341 = CARTESIAN_POINT ( 'NONE',  ( 0.000000000000000000, 7.750000000000000000, 0.000000000000000000 ) ) ;
#342 = EDGE_LOOP ( 'NONE', ( #47 ) ) ;
#343 = DIRECTION ( 'NONE',  ( 0.000000000000000000, 1.000000000000000000, 0.000000000000000000 ) ) ;
#344 = ADVANCED_FACE ( 'NONE', ( #282, #237 ), #72, .T. ) ;
#345 = CARTESIAN_POINT ( 'NONE',  ( 0.000000000000000000, 10.25000000000000000, 0.000000000000000000 ) ) ;
ENDSEC;
END-ISO-10303-21;
