ISO-10303-21;
HEADER;
FILE_DESCRIPTION (( 'STEP AP214' ),
    '1' );
FILE_NAME ('PT5M3CB.STEP',
    '2024-07-11T14:08:26',
    ( '' ),
    ( '' ),
    'SwSTEP 2.0',
    'SolidWorks 2023',
    '' );
FILE_SCHEMA (( 'AUTOMOTIVE_DESIGN' ));
ENDSEC;

DATA;
#1 = EDGE_LOOP ( 'NONE', ( #196 ) ) ;
#2 = DIRECTION ( 'NONE',  ( 0.000000000000000000, 0.000000000000000000, 1.000000000000000000 ) ) ;
#3 = EDGE_LOOP ( 'NONE', ( #167 ) ) ;
#4 = FACE_OUTER_BOUND ( 'NONE', #114, .T. ) ;
#5 = CYLINDRICAL_SURFACE ( 'NONE', #59, 0.02952755905511811677 ) ;
#6 = APPLICATION_CONTEXT ( 'automotive_design' ) ;
#7 = CYLINDRICAL_SURFACE ( 'NONE', #162, 0.04687499999999999306 ) ;
#8 = DIRECTION ( 'NONE',  ( 0.000000000000000000, 0.000000000000000000, 1.000000000000000000 ) ) ;
#9 = EDGE_CURVE ( 'NONE', #60, #60, #122, .T. ) ;
#10 = AXIS2_PLACEMENT_3D ( 'NONE', #83, #121, #34 ) ;
#11 = SHAPE_DEFINITION_REPRESENTATION ( #168, #78 ) ;
#12 = VERTEX_POINT ( 'NONE', #92 ) ;
#13 = EDGE_LOOP ( 'NONE', ( #79 ) ) ;
#14 = DIRECTION ( 'NONE',  ( 0.000000000000000000, 1.000000000000000000, 0.000000000000000000 ) ) ;
#15 = AXIS2_PLACEMENT_3D ( 'NONE', #124, #39, #159 ) ;
#16 = EDGE_LOOP ( 'NONE', ( #165 ) ) ;
#17 = FACE_OUTER_BOUND ( 'NONE', #112, .T. ) ;
#18 = DIRECTION ( 'NONE',  ( 0.000000000000000000, -0.000000000000000000, 1.000000000000000000 ) ) ;
#19 =( GEOMETRIC_REPRESENTATION_CONTEXT ( 3 ) GLOBAL_UNCERTAINTY_ASSIGNED_CONTEXT ( ( #125 ) ) GLOBAL_UNIT_ASSIGNED_CONTEXT ( ( #157, #175, #158 ) ) REPRESENTATION_CONTEXT ( 'NONE', 'WORKASPACE' ) );
#20 = CARTESIAN_POINT ( 'NONE',  ( 0.000000000000000000, -0.7324507892913386664, 0.000000000000000000 ) ) ;
#21 = DIRECTION ( 'NONE',  ( 0.000000000000000000, 0.000000000000000000, -1.000000000000000000 ) ) ;
#22 = ADVANCED_FACE ( 'NONE', ( #65, #166 ), #46, .T. ) ;
#23 = CONICAL_SURFACE ( 'NONE', #47, 0.09842519685039370636, 0.7853981633974428389 ) ;
#24 = EDGE_LOOP ( 'NONE', ( #152 ) ) ;
#25 = PRODUCT_DEFINITION_CONTEXT ( 'detailed design', #127, 'design' ) ;
#26 = LENGTH_MEASURE_WITH_UNIT ( LENGTH_MEASURE( 0.02539999999999999897 ), #210 );
#27 = AXIS2_PLACEMENT_3D ( 'NONE', #63, #14, #131 ) ;
#28 = EDGE_LOOP ( 'NONE', ( #154 ) ) ;
#29 = ORIENTED_EDGE ( 'NONE', *, *, #180, .F. ) ;
#30 = ADVANCED_FACE ( 'NONE', ( #62 ), #201, .T. ) ;
#31 = EDGE_LOOP ( 'NONE', ( #80 ) ) ;
#32 = PLANE ( 'NONE',  #140 ) ;
#33 = ORIENTED_EDGE ( 'NONE', *, *, #61, .T. ) ;
#34 = DIRECTION ( 'NONE',  ( 0.000000000000000000, 0.000000000000000000, 1.000000000000000000 ) ) ;
#35 = DIRECTION ( 'NONE',  ( -0.000000000000000000, 1.000000000000000000, -0.000000000000000000 ) ) ;
#36 = ADVANCED_FACE ( 'NONE', ( #17, #64 ), #66, .T. ) ;
#37 = FACE_OUTER_BOUND ( 'NONE', #13, .T. ) ;
#38 = AXIS2_PLACEMENT_3D ( 'NONE', #156, #35, #135 ) ;
#39 = DIRECTION ( 'NONE',  ( 0.000000000000000000, 0.000000000000000000, 1.000000000000000000 ) ) ;
#40 = DIRECTION ( 'NONE',  ( 0.000000000000000000, 0.000000000000000000, 1.000000000000000000 ) ) ;
#41 = DIRECTION ( 'NONE',  ( -0.000000000000000000, -1.000000000000000000, -0.000000000000000000 ) ) ;
#42 = PRODUCT_RELATED_PRODUCT_CATEGORY ( 'part', '', ( #198 ) ) ;
#43 = VERTEX_POINT ( 'NONE', #144 ) ;
#44 = DIRECTION ( 'NONE',  ( 0.000000000000000000, 1.000000000000000000, 0.000000000000000000 ) ) ;
#45 = DIRECTION ( 'NONE',  ( 0.000000000000000000, -0.000000000000000000, 1.000000000000000000 ) ) ;
#46 = PLANE ( 'NONE',  #27 ) ;
#47 = AXIS2_PLACEMENT_3D ( 'NONE', #104, #204, #49 ) ;
#48 = FACE_BOUND ( 'NONE', #24, .T. ) ;
#49 = DIRECTION ( 'NONE',  ( 0.000000000000000000, 0.000000000000000000, 1.000000000000000000 ) ) ;
#50 = AXIS2_PLACEMENT_3D ( 'NONE', #68, #203, #51 ) ;
#51 = DIRECTION ( 'NONE',  ( 0.000000000000000000, 0.000000000000000000, -1.000000000000000000 ) ) ;
#52 = SURFACE_STYLE_USAGE ( .BOTH. , #136 ) ;
#53 = FACE_OUTER_BOUND ( 'NONE', #199, .T. ) ;
#54 = VERTEX_POINT ( 'NONE', #163 ) ;
#55 = ADVANCED_FACE ( 'NONE', ( #4 ), #32, .T. ) ;
#56 = CARTESIAN_POINT ( 'NONE',  ( 0.000000000000000000, -0.3346456692913385988, 0.09055118110236234918 ) ) ;
#57 = ORIENTED_EDGE ( 'NONE', *, *, #180, .T. ) ;
#58 = DIRECTION ( 'NONE',  ( 0.000000000000000000, -1.000000000000000000, 0.000000000000000000 ) ) ;
#59 = AXIS2_PLACEMENT_3D ( 'NONE', #85, #86, #134 ) ;
#60 = VERTEX_POINT ( 'NONE', #90 ) ;
#61 = EDGE_CURVE ( 'NONE', #43, #43, #74, .T. ) ;
#62 = FACE_OUTER_BOUND ( 'NONE', #1, .T. ) ;
#63 = CARTESIAN_POINT ( 'NONE',  ( 0.000000000000000000, 0.3346456692913385988, 0.000000000000000000 ) ) ;
#64 = FACE_OUTER_BOUND ( 'NONE', #16, .T. ) ;
#65 = FACE_OUTER_BOUND ( 'NONE', #188, .T. ) ;
#66 = CYLINDRICAL_SURFACE ( 'NONE', #207, 0.09842519685039370636 ) ;
#67 = ADVANCED_FACE ( 'NONE', ( #173, #87 ), #161, .T. ) ;
#68 = CARTESIAN_POINT ( 'NONE',  ( 0.000000000000000000, 0.3346456692913385988, 0.000000000000000000 ) ) ;
#69 = CARTESIAN_POINT ( 'NONE',  ( 0.000000000000000000, 0.3346456692913385988, 0.000000000000000000 ) ) ;
#70 = PRESENTATION_STYLE_ASSIGNMENT (( #52 ) ) ;
#71 =( GEOMETRIC_REPRESENTATION_CONTEXT ( 3 ) GLOBAL_UNCERTAINTY_ASSIGNED_CONTEXT ( ( #141 ) ) GLOBAL_UNIT_ASSIGNED_CONTEXT ( ( #123, #139, #209 ) ) REPRESENTATION_CONTEXT ( 'NONE', 'WORKASPACE' ) );
#72 = CARTESIAN_POINT ( 'NONE',  ( 0.000000000000000000, 0.3267716535433071723, 0.000000000000000000 ) ) ;
#73 = FACE_OUTER_BOUND ( 'NONE', #129, .T. ) ;
#74 = CIRCLE ( 'NONE', #10, 0.09055118110236240470 ) ;
#75 = AXIS2_PLACEMENT_3D ( 'NONE', #76, #41, #142 ) ;
#76 = CARTESIAN_POINT ( 'NONE',  ( 0.000000000000000000, -0.3346456692913385988, 0.000000000000000000 ) ) ;
#77 = PRODUCT_DEFINITION_FORMATION_WITH_SPECIFIED_SOURCE ( 'ANY', '', #198, .NOT_KNOWN. ) ;
#78 = ADVANCED_BREP_SHAPE_REPRESENTATION ( 'PT5M3CB', ( #145, #15 ), #71 ) ;
#79 = ORIENTED_EDGE ( 'NONE', *, *, #9, .F. ) ;
#80 = ORIENTED_EDGE ( 'NONE', *, *, #61, .F. ) ;
#81 = EDGE_LOOP ( 'NONE', ( #115 ) ) ;
#82 = ORIENTED_EDGE ( 'NONE', *, *, #170, .F. ) ;
#83 = CARTESIAN_POINT ( 'NONE',  ( 0.000000000000000000, 0.3346456692913385988, 0.000000000000000000 ) ) ;
#84 = EDGE_CURVE ( 'NONE', #54, #54, #151, .T. ) ;
#85 = CARTESIAN_POINT ( 'NONE',  ( 0.000000000000000000, 0.3937007874015748254, 0.000000000000000000 ) ) ;
#86 = DIRECTION ( 'NONE',  ( -0.000000000000000000, -1.000000000000000000, -0.000000000000000000 ) ) ;
#87 = FACE_BOUND ( 'NONE', #31, .T. ) ;
#88 = DIRECTION ( 'NONE',  ( 0.000000000000000000, 1.000000000000000000, 0.000000000000000000 ) ) ;
#89 = AXIS2_PLACEMENT_3D ( 'NONE', #69, #88, #40 ) ;
#90 = CARTESIAN_POINT ( 'NONE',  ( 0.000000000000000000, 0.3937007874015748254, 0.02952755905511811677 ) ) ;
#91 = ADVANCED_FACE ( 'NONE', ( #73, #53 ), #7, .T. ) ;
#92 = CARTESIAN_POINT ( 'NONE',  ( 0.000000000000000000, -0.3267716535433071723, 0.09842519685039370636 ) ) ;
#93 = AXIS2_PLACEMENT_3D ( 'NONE', #181, #58, #146 ) ;
#94 = VERTEX_POINT ( 'NONE', #179 ) ;
#95 = VERTEX_POINT ( 'NONE', #106 ) ;
#96 = CIRCLE ( 'NONE', #75, 0.09055118110236234918 ) ;
#97 = ORIENTED_EDGE ( 'NONE', *, *, #177, .F. ) ;
#98 = EDGE_LOOP ( 'NONE', ( #97 ) ) ;
#99 = EDGE_LOOP ( 'NONE', ( #82 ) ) ;
#100 = CARTESIAN_POINT ( 'NONE',  ( 0.000000000000000000, -0.7324507892913386664, 0.000000000000000000 ) ) ;
#101 = PLANE ( 'NONE',  #202 ) ;
#102 = FACE_OUTER_BOUND ( 'NONE', #28, .T. ) ;
#103 = CIRCLE ( 'NONE', #93, 0.04687499999999999306 ) ;
#104 = CARTESIAN_POINT ( 'NONE',  ( 0.000000000000000000, -0.3267716535433071723, 0.000000000000000000 ) ) ;
#105 = DIRECTION ( 'NONE',  ( 0.000000000000000000, -1.000000000000000000, 0.000000000000000000 ) ) ;
#106 = CARTESIAN_POINT ( 'NONE',  ( 0.000000000000000000, -0.7324507892913386664, -0.04687499999999999306 ) ) ;
#107 = CIRCLE ( 'NONE', #38, 0.09842519685039370636 ) ;
#108 = AXIS2_PLACEMENT_3D ( 'NONE', #118, #206, #21 ) ;
#109 = STYLED_ITEM ( 'NONE', ( #70 ), #145 ) ;
#110 = EDGE_CURVE ( 'NONE', #12, #12, #107, .T. ) ;
#111 = DIRECTION ( 'NONE',  ( 0.000000000000000000, -1.000000000000000000, 0.000000000000000000 ) ) ;
#112 = EDGE_LOOP ( 'NONE', ( #149 ) ) ;
#113 = ADVANCED_FACE ( 'NONE', ( #48, #194 ), #101, .F. ) ;
#114 = EDGE_LOOP ( 'NONE', ( #57 ) ) ;
#115 = ORIENTED_EDGE ( 'NONE', *, *, #177, .T. ) ;
#116 = SURFACE_STYLE_FILL_AREA ( #190 ) ;
#117 = DIRECTION ( 'NONE',  ( -0.000000000000000000, 1.000000000000000000, -0.000000000000000000 ) ) ;
#118 = CARTESIAN_POINT ( 'NONE',  ( 0.000000000000000000, -0.3346456692913385988, 0.000000000000000000 ) ) ;
#119 = FACE_BOUND ( 'NONE', #98, .T. ) ;
#120 = ADVANCED_FACE ( 'NONE', ( #37, #102 ), #5, .T. ) ;
#121 = DIRECTION ( 'NONE',  ( 0.000000000000000000, 1.000000000000000000, 0.000000000000000000 ) ) ;
#122 = CIRCLE ( 'NONE', #126, 0.02952755905511811677 ) ;
#123 =( CONVERSION_BASED_UNIT ( 'INCH', #26 ) LENGTH_UNIT ( ) NAMED_UNIT ( #143 ) );
#124 = CARTESIAN_POINT ( 'NONE',  ( 0.000000000000000000, 0.000000000000000000, 0.000000000000000000 ) ) ;
#125 = UNCERTAINTY_MEASURE_WITH_UNIT (LENGTH_MEASURE( 1.000000000000000082E-05 ), #157, 'distance_accuracy_value', 'NONE');
#126 = AXIS2_PLACEMENT_3D ( 'NONE', #150, #153, #2 ) ;
#127 = APPLICATION_CONTEXT ( 'automotive_design' ) ;
#128 = ADVANCED_FACE ( 'NONE', ( #119, #172 ), #23, .T. ) ;
#129 = EDGE_LOOP ( 'NONE', ( #29 ) ) ;
#130 = CARTESIAN_POINT ( 'NONE',  ( 0.000000000000000000, 0.3346456692913385988, 0.000000000000000000 ) ) ;
#131 = DIRECTION ( 'NONE',  ( 0.000000000000000000, -0.000000000000000000, 1.000000000000000000 ) ) ;
#132 = CLOSED_SHELL ( 'NONE', ( #36, #22, #113, #120, #30, #128, #67, #91, #55 ) ) ;
#133 = ORIENTED_EDGE ( 'NONE', *, *, #110, .F. ) ;
#134 = DIRECTION ( 'NONE',  ( 0.000000000000000000, 0.000000000000000000, -1.000000000000000000 ) ) ;
#135 = DIRECTION ( 'NONE',  ( 0.000000000000000000, 0.000000000000000000, 1.000000000000000000 ) ) ;
#136 = SURFACE_SIDE_STYLE ('',( #116 ) ) ;
#137 = EDGE_CURVE ( 'NONE', #94, #94, #186, .T. ) ;
#138 = LENGTH_MEASURE_WITH_UNIT ( LENGTH_MEASURE( 0.02539999999999999897 ), #189 );
#139 =( NAMED_UNIT ( * ) PLANE_ANGLE_UNIT ( ) SI_UNIT ( $, .RADIAN. ) );
#140 = AXIS2_PLACEMENT_3D ( 'NONE', #100, #111, #184 ) ;
#141 = UNCERTAINTY_MEASURE_WITH_UNIT (LENGTH_MEASURE( 1.000000000000000082E-05 ), #123, 'distance_accuracy_value', 'NONE');
#142 = DIRECTION ( 'NONE',  ( 0.000000000000000000, 0.000000000000000000, 1.000000000000000000 ) ) ;
#143 = DIMENSIONAL_EXPONENTS ( 1.000000000000000000, 0.000000000000000000, 0.000000000000000000, 0.000000000000000000, 0.000000000000000000, 0.000000000000000000, 0.000000000000000000 ) ;
#144 = CARTESIAN_POINT ( 'NONE',  ( 0.000000000000000000, 0.3346456692913385988, 0.09055118110236240470 ) ) ;
#145 = MANIFOLD_SOLID_BREP ( 'Boss-Extrude3', #132 ) ;
#146 = DIRECTION ( 'NONE',  ( 0.000000000000000000, 0.000000000000000000, -1.000000000000000000 ) ) ;
#147 = APPLICATION_PROTOCOL_DEFINITION ( 'draft international standard', 'automotive_design', 1998, #127 ) ;
#148 = PRODUCT_DEFINITION ( 'UNKNOWN', '', #77, #25 ) ;
#149 = ORIENTED_EDGE ( 'NONE', *, *, #110, .T. ) ;
#150 = CARTESIAN_POINT ( 'NONE',  ( 0.000000000000000000, 0.3937007874015748254, 0.000000000000000000 ) ) ;
#151 = CIRCLE ( 'NONE', #205, 0.09842519685039370636 ) ;
#152 = ORIENTED_EDGE ( 'NONE', *, *, #137, .F. ) ;
#153 = DIRECTION ( 'NONE',  ( 0.000000000000000000, 1.000000000000000000, 0.000000000000000000 ) ) ;
#154 = ORIENTED_EDGE ( 'NONE', *, *, #170, .T. ) ;
#155 = CARTESIAN_POINT ( 'NONE',  ( 0.000000000000000000, -0.3346456692913385988, 0.000000000000000000 ) ) ;
#156 = CARTESIAN_POINT ( 'NONE',  ( 0.000000000000000000, -0.3267716535433071723, 0.000000000000000000 ) ) ;
#157 =( CONVERSION_BASED_UNIT ( 'INCH', #138 ) LENGTH_UNIT ( ) NAMED_UNIT ( #174 ) );
#158 =( NAMED_UNIT ( * ) SI_UNIT ( $, .STERADIAN. ) SOLID_ANGLE_UNIT ( ) );
#159 = DIRECTION ( 'NONE',  ( 1.000000000000000000, 0.000000000000000000, 0.000000000000000000 ) ) ;
#160 = VERTEX_POINT ( 'NONE', #56 ) ;
#161 = CONICAL_SURFACE ( 'NONE', #50, 0.09055118110236240470, 0.7853981633974386201 ) ;
#162 = AXIS2_PLACEMENT_3D ( 'NONE', #20, #117, #192 ) ;
#163 = CARTESIAN_POINT ( 'NONE',  ( 0.000000000000000000, 0.3267716535433071723, 0.09842519685039370636 ) ) ;
#164 = COLOUR_RGB ( '',0.7921568627450980005, 0.8196078431372548767, 0.9333333333333333481 ) ;
#165 = ORIENTED_EDGE ( 'NONE', *, *, #84, .T. ) ;
#166 = FACE_BOUND ( 'NONE', #99, .T. ) ;
#167 = ORIENTED_EDGE ( 'NONE', *, *, #84, .F. ) ;
#168 = PRODUCT_DEFINITION_SHAPE ( 'NONE', 'NONE',  #148 ) ;
#169 = DIRECTION ( 'NONE',  ( 0.000000000000000000, 1.000000000000000000, 0.000000000000000000 ) ) ;
#170 = EDGE_CURVE ( 'NONE', #211, #211, #193, .T. ) ;
#171 = MECHANICAL_DESIGN_GEOMETRIC_PRESENTATION_REPRESENTATION (  '', ( #109 ), #19 ) ;
#172 = FACE_OUTER_BOUND ( 'NONE', #185, .T. ) ;
#173 = FACE_OUTER_BOUND ( 'NONE', #3, .T. ) ;
#174 = DIMENSIONAL_EXPONENTS ( 1.000000000000000000, 0.000000000000000000, 0.000000000000000000, 0.000000000000000000, 0.000000000000000000, 0.000000000000000000, 0.000000000000000000 ) ;
#175 =( NAMED_UNIT ( * ) PLANE_ANGLE_UNIT ( ) SI_UNIT ( $, .RADIAN. ) );
#176 = PRODUCT_CONTEXT ( 'NONE', #6, 'mechanical' ) ;
#177 = EDGE_CURVE ( 'NONE', #160, #160, #96, .T. ) ;
#178 = CARTESIAN_POINT ( 'NONE',  ( 0.000000000000000000, 0.3346456692913385988, 0.02952755905511811677 ) ) ;
#179 = CARTESIAN_POINT ( 'NONE',  ( 0.000000000000000000, -0.3346456692913385988, -0.04687499999999999306 ) ) ;
#180 = EDGE_CURVE ( 'NONE', #95, #95, #103, .T. ) ;
#181 = CARTESIAN_POINT ( 'NONE',  ( 0.000000000000000000, -0.7324507892913386664, 0.000000000000000000 ) ) ;
#182 = AXIS2_PLACEMENT_3D ( 'NONE', #197, #44, #45 ) ;
#183 = ORIENTED_EDGE ( 'NONE', *, *, #137, .T. ) ;
#184 = DIRECTION ( 'NONE',  ( 0.000000000000000000, -0.000000000000000000, -1.000000000000000000 ) ) ;
#185 = EDGE_LOOP ( 'NONE', ( #133 ) ) ;
#186 = CIRCLE ( 'NONE', #108, 0.04687499999999999306 ) ;
#187 = DIRECTION ( 'NONE',  ( 0.000000000000000000, 0.000000000000000000, -1.000000000000000000 ) ) ;
#188 = EDGE_LOOP ( 'NONE', ( #33 ) ) ;
#189 =( LENGTH_UNIT ( ) NAMED_UNIT ( * ) SI_UNIT ( $, .METRE. ) );
#190 = FILL_AREA_STYLE ('',( #191 ) ) ;
#191 = FILL_AREA_STYLE_COLOUR ( '', #164 ) ;
#192 = DIRECTION ( 'NONE',  ( 0.000000000000000000, 0.000000000000000000, 1.000000000000000000 ) ) ;
#193 = CIRCLE ( 'NONE', #89, 0.02952755905511811677 ) ;
#194 = FACE_OUTER_BOUND ( 'NONE', #81, .T. ) ;
#195 = APPLICATION_PROTOCOL_DEFINITION ( 'draft international standard', 'automotive_design', 1998, #6 ) ;
#196 = ORIENTED_EDGE ( 'NONE', *, *, #9, .T. ) ;
#197 = CARTESIAN_POINT ( 'NONE',  ( 0.000000000000000000, 0.3937007874015748254, 0.000000000000000000 ) ) ;
#198 = PRODUCT ( 'PT5M3CB', 'PT5M3CB', '', ( #176 ) ) ;
#199 = EDGE_LOOP ( 'NONE', ( #183 ) ) ;
#200 = DIRECTION ( 'NONE',  ( -0.000000000000000000, -1.000000000000000000, -0.000000000000000000 ) ) ;
#201 = PLANE ( 'NONE',  #182 ) ;
#202 = AXIS2_PLACEMENT_3D ( 'NONE', #155, #169, #18 ) ;
#203 = DIRECTION ( 'NONE',  ( 0.000000000000000000, -1.000000000000000000, 0.000000000000000000 ) ) ;
#204 = DIRECTION ( 'NONE',  ( -0.000000000000000000, 1.000000000000000000, -0.000000000000000000 ) ) ;
#205 = AXIS2_PLACEMENT_3D ( 'NONE', #72, #105, #8 ) ;
#206 = DIRECTION ( 'NONE',  ( 0.000000000000000000, -1.000000000000000000, 0.000000000000000000 ) ) ;
#207 = AXIS2_PLACEMENT_3D ( 'NONE', #130, #200, #187 ) ;
#208 = PRESENTATION_LAYER_ASSIGNMENT (  '', '', ( #109 ) ) ;
#209 =( NAMED_UNIT ( * ) SI_UNIT ( $, .STERADIAN. ) SOLID_ANGLE_UNIT ( ) );
#210 =( LENGTH_UNIT ( ) NAMED_UNIT ( * ) SI_UNIT ( $, .METRE. ) );
#211 = VERTEX_POINT ( 'NONE', #178 ) ;
ENDSEC;
END-ISO-10303-21;
