ISO-10303-21;
HEADER;
FILE_DESCRIPTION (( 'STEP AP203' ),
    '1' );
FILE_NAME ('NIL20SS-036.000-SL.step',
    '2023-06-07T12:31:59',
    ( '' ),
    ( '' ),
    'SwSTEP 2.0',
    'SolidWorks 2021',
    '' );
FILE_SCHEMA (( 'CONFIG_CONTROL_DESIGN' ));
ENDSEC;

DATA;
#1 = VERTEX_POINT ( 'NONE', #150 ) ;
#2 = CIRCLE ( 'NONE', #200, 0.6150000000000042100 ) ;
#3 = CIRCLE ( 'NONE', #87, 0.6149999999999954392 ) ;
#4 = CARTESIAN_POINT ( 'NONE',  ( 18.00000000000000000, 0.000000000000000000, 0.000000000000000000 ) ) ;
#5 = DIRECTION ( 'NONE',  ( 0.000000000000000000, 0.000000000000000000, -1.000000000000000000 ) ) ;
#6 = CARTESIAN_POINT ( 'NONE',  ( -17.98999999999999844, 0.000000000000000000, 0.000000000000000000 ) ) ;
#7 = APPROVAL_PERSON_ORGANIZATION ( #271, #156, #25 ) ;
#8 = AXIS2_PLACEMENT_3D ( 'NONE', #246, #225, #229 ) ;
#9 = DIRECTION ( 'NONE',  ( 1.000000000000000000, -0.000000000000000000, -0.000000000000000000 ) ) ;
#10 = ADVANCED_BREP_SHAPE_REPRESENTATION ( 'NIL20SS-036.000-SL', ( #162, #143 ), #238 ) ;
#11 = CARTESIAN_POINT ( 'NONE',  ( -17.98999999999999844, 0.000000000000000000, 0.000000000000000000 ) ) ;
#12 = ADVANCED_FACE ( 'NONE', ( #42 ), #214, .F. ) ;
#13 = DIRECTION ( 'NONE',  ( 0.000000000000000000, 0.000000000000000000, -1.000000000000000000 ) ) ;
#14 = ORIENTED_EDGE ( 'NONE', *, *, #15, .F. ) ;
#15 = EDGE_CURVE ( 'NONE', #85, #108, #67, .T. ) ;
#16 = APPLICATION_CONTEXT ( 'configuration controlled 3d designs of mechanical parts and assemblies' ) ;
#17 = DIRECTION ( 'NONE',  ( 1.000000000000000000, 0.000000000000000000, 0.000000000000000000 ) ) ;
#18 = VERTEX_POINT ( 'NONE', #22 ) ;
#19 = ADVANCED_FACE ( 'NONE', ( #96 ), #56, .T. ) ;
#20 = ORIENTED_EDGE ( 'NONE', *, *, #201, .F. ) ;
#21 = EDGE_LOOP ( 'NONE', ( #130, #133, #262, #20 ) ) ;
#22 = CARTESIAN_POINT ( 'NONE',  ( 18.00000000000000000, 0.000000000000000000, 0.6150000000000042100 ) ) ;
#23 = CC_DESIGN_APPROVAL ( #52, ( #202 ) ) ;
#24 = EDGE_CURVE ( 'NONE', #235, #195, #157, .T. ) ;
#25 = APPROVAL_ROLE ( '' ) ;
#26 = FACE_OUTER_BOUND ( 'NONE', #174, .T. ) ;
#27 = CARTESIAN_POINT ( 'NONE',  ( 17.99000000000000199, 0.000000000000000000, 0.6250000000000000000 ) ) ;
#28 = CC_DESIGN_APPROVAL ( #93, ( #103 ) ) ;
#29 = EDGE_CURVE ( 'NONE', #64, #108, #263, .T. ) ;
#30 = DIRECTION ( 'NONE',  ( 1.000000000000000000, 0.000000000000000000, 0.000000000000000000 ) ) ;
#31 = CARTESIAN_POINT ( 'NONE',  ( 18.00000000000000000, 0.000000000000000000, 0.6150000000000042100 ) ) ;
#32 = AXIS2_PLACEMENT_3D ( 'NONE', #138, #239, #113 ) ;
#33 = FACE_OUTER_BOUND ( 'NONE', #172, .T. ) ;
#34 = SECURITY_CLASSIFICATION ( '', '', #169 ) ;
#35 = FACE_OUTER_BOUND ( 'NONE', #261, .T. ) ;
#36 = DIRECTION ( 'NONE',  ( 0.000000000000000000, 0.000000000000000000, 1.000000000000000000 ) ) ;
#37 = DESIGN_CONTEXT ( 'detailed design', #76, 'design' ) ;
#38 = ORIENTED_EDGE ( 'NONE', *, *, #192, .T. ) ;
#39 = ADVANCED_FACE ( 'NONE', ( #26 ), #160, .T. ) ;
#40 = AXIS2_PLACEMENT_3D ( 'NONE', #58, #9, #205 ) ;
#41 = APPROVAL_DATE_TIME ( #68, #52 ) ;
#42 = FACE_OUTER_BOUND ( 'NONE', #69, .T. ) ;
#43 = CC_DESIGN_PERSON_AND_ORGANIZATION_ASSIGNMENT ( #134, #217, ( #103 ) ) ;
#44 = ORIENTED_EDGE ( 'NONE', *, *, #171, .F. ) ;
#45 = COORDINATED_UNIVERSAL_TIME_OFFSET ( 5, 0, .BEHIND. ) ;
#46 = ORIENTED_EDGE ( 'NONE', *, *, #61, .F. ) ;
#47 = PERSON_AND_ORGANIZATION_ROLE ( 'creator' ) ;
#48 = CONICAL_SURFACE ( 'NONE', #149, 0.6250000000000000000, 0.7853981633975029020 ) ;
#49 = PRODUCT_RELATED_PRODUCT_CATEGORY ( 'detail', '', ( #272 ) ) ;
#50 = DIRECTION ( 'NONE',  ( -1.000000000000000000, -0.000000000000000000, -0.000000000000000000 ) ) ;
#51 = APPROVAL_STATUS ( 'not_yet_approved' ) ;
#52 = APPROVAL ( #197, 'UNSPECIFIED' ) ;
#53 = CC_DESIGN_PERSON_AND_ORGANIZATION_ASSIGNMENT ( #237, #47, ( #103 ) ) ;
#54 = DIRECTION ( 'NONE',  ( 0.7071067811865088260, 0.000000000000000000, -0.7071067811865860975 ) ) ;
#55 = LOCAL_TIME ( 8, 31, 59.00000000000000000, #90 ) ;
#56 = CONICAL_SURFACE ( 'NONE', #32, 0.6150000000000042100, 0.7853981633973936560 ) ;
#57 = CYLINDRICAL_SURFACE ( 'NONE', #232, 0.6250000000000000000 ) ;
#58 = CARTESIAN_POINT ( 'NONE',  ( -17.98999999999999844, 0.000000000000000000, 0.000000000000000000 ) ) ;
#59 = FACE_OUTER_BOUND ( 'NONE', #276, .T. ) ;
#60 = PERSON_AND_ORGANIZATION_ROLE ( 'classification_officer' ) ;
#61 = EDGE_CURVE ( 'NONE', #278, #18, #119, .T. ) ;
#62 =( CONVERSION_BASED_UNIT ( 'INCH', #66 ) LENGTH_UNIT ( ) NAMED_UNIT ( #131 ) );
#63 = AXIS2_PLACEMENT_3D ( 'NONE', #115, #95, #161 ) ;
#64 = VERTEX_POINT ( 'NONE', #27 ) ;
#65 = APPROVAL_PERSON_ORGANIZATION ( #176, #93, #153 ) ;
#66 = LENGTH_MEASURE_WITH_UNIT ( LENGTH_MEASURE( 0.02539999999999999897 ), #228 );
#67 = LINE ( 'NONE', #181, #159 ) ;
#68 = DATE_AND_TIME ( #233, #180 ) ;
#69 = EDGE_LOOP ( 'NONE', ( #173, #179 ) ) ;
#70 = ADVANCED_FACE ( 'NONE', ( #204 ), #248, .T. ) ;
#71 = DATE_AND_TIME ( #260, #220 ) ;
#72 = ORIENTED_EDGE ( 'NONE', *, *, #15, .T. ) ;
#73 = CONICAL_SURFACE ( 'NONE', #40, 0.6250000000000000000, 0.7853981633975029020 ) ;
#74 = ORIENTED_EDGE ( 'NONE', *, *, #257, .F. ) ;
#75 = DIRECTION ( 'NONE',  ( -1.000000000000000000, -0.000000000000000000, -0.000000000000000000 ) ) ;
#76 = APPLICATION_CONTEXT ( 'configuration controlled 3d designs of mechanical parts and assemblies' ) ;
#77 = CARTESIAN_POINT ( 'NONE',  ( 18.00000000000000000, 0.000000000000000000, 0.6250000000000000000 ) ) ;
#78 = CARTESIAN_POINT ( 'NONE',  ( -18.00000000000000000, 0.000000000000000000, 0.000000000000000000 ) ) ;
#79 = LINE ( 'NONE', #98, #99 ) ;
#80 = CARTESIAN_POINT ( 'NONE',  ( 18.00000000000000000, 7.592810154713617445E-17, -0.6150000000000042100 ) ) ;
#81 = PLANE ( 'NONE',  #8 ) ;
#82 = VECTOR ( 'NONE', #122, 39.37007874015748854 ) ;
#83 = PERSON_AND_ORGANIZATION_ROLE ( 'creator' ) ;
#84 = CARTESIAN_POINT ( 'NONE',  ( 0.000000000000000000, 0.000000000000000000, 0.000000000000000000 ) ) ;
#85 = VERTEX_POINT ( 'NONE', #168 ) ;
#86 = DATE_AND_TIME ( #105, #55 ) ;
#87 = AXIS2_PLACEMENT_3D ( 'NONE', #78, #190, #208 ) ;
#88 = APPROVAL_ROLE ( '' ) ;
#89 = ORIENTED_EDGE ( 'NONE', *, *, #192, .F. ) ;
#90 = COORDINATED_UNIVERSAL_TIME_OFFSET ( 5, 0, .BEHIND. ) ;
#91 = ORIENTED_EDGE ( 'NONE', *, *, #24, .F. ) ;
#92 = DATE_AND_TIME ( #221, #114 ) ;
#93 = APPROVAL ( #196, 'UNSPECIFIED' ) ;
#94 = CARTESIAN_POINT ( 'NONE',  ( 18.00000000000000000, 7.654042494670957853E-17, -0.6250000000000000000 ) ) ;
#95 = DIRECTION ( 'NONE',  ( 1.000000000000000000, 0.000000000000000000, 0.000000000000000000 ) ) ;
#96 = FACE_OUTER_BOUND ( 'NONE', #112, .T. ) ;
#97 = DIRECTION ( 'NONE',  ( -1.000000000000000000, 0.000000000000000000, 0.000000000000000000 ) ) ;
#98 = CARTESIAN_POINT ( 'NONE',  ( -17.98999999999999844, 0.000000000000000000, -0.6250000000000000000 ) ) ;
#99 = VECTOR ( 'NONE', #54, 39.37007874015748854 ) ;
#100 = DIRECTION ( 'NONE',  ( 0.000000000000000000, 0.000000000000000000, -1.000000000000000000 ) ) ;
#101 = DIRECTION ( 'NONE',  ( 1.000000000000000000, -0.000000000000000000, -0.000000000000000000 ) ) ;
#102 = AXIS2_PLACEMENT_3D ( 'NONE', #256, #17, #106 ) ;
#103 = PRODUCT_DEFINITION_FORMATION_WITH_SPECIFIED_SOURCE ( 'ANY', '', #272, .NOT_KNOWN. ) ;
#104 = DATE_AND_TIME ( #211, #210 ) ;
#105 = CALENDAR_DATE ( 2023, 7, 6 ) ;
#106 = DIRECTION ( 'NONE',  ( 0.000000000000000000, 0.000000000000000000, -1.000000000000000000 ) ) ;
#107 = DATE_TIME_ROLE ( 'creation_date' ) ;
#108 = VERTEX_POINT ( 'NONE', #206 ) ;
#109 = CC_DESIGN_SECURITY_CLASSIFICATION ( #34, ( #103 ) ) ;
#110 =( NAMED_UNIT ( * ) SI_UNIT ( $, .STERADIAN. ) SOLID_ANGLE_UNIT ( ) );
#111 = CC_DESIGN_DATE_AND_TIME_ASSIGNMENT ( #104, #193, ( #34 ) ) ;
#112 = EDGE_LOOP ( 'NONE', ( #46, #259, #194, #74 ) ) ;
#113 = DIRECTION ( 'NONE',  ( 0.000000000000000000, 0.000000000000000000, 1.000000000000000000 ) ) ;
#114 = LOCAL_TIME ( 8, 31, 59.00000000000000000, #178 ) ;
#115 = CARTESIAN_POINT ( 'NONE',  ( 18.00000000000000000, 0.000000000000000000, 0.000000000000000000 ) ) ;
#116 = VECTOR ( 'NONE', #75, 39.37007874015748143 ) ;
#117 = ORGANIZATION ( 'UNSPECIFIED', 'UNSPECIFIED', '' ) ;
#118 = CARTESIAN_POINT ( 'NONE',  ( 17.99000000000000199, 7.654042494670957853E-17, -0.6250000000000000000 ) ) ;
#119 = CIRCLE ( 'NONE', #63, 0.6150000000000042100 ) ;
#120 = AXIS2_PLACEMENT_3D ( 'NONE', #240, #50, #222 ) ;
#121 = EDGE_CURVE ( 'NONE', #18, #278, #2, .T. ) ;
#122 = DIRECTION ( 'NONE',  ( -0.7071067811865860975, 0.000000000000000000, 0.7071067811865088260 ) ) ;
#123 = CC_DESIGN_PERSON_AND_ORGANIZATION_ASSIGNMENT ( #252, #60, ( #34 ) ) ;
#124 = AXIS2_PLACEMENT_3D ( 'NONE', #125, #101, #249 ) ;
#125 = CARTESIAN_POINT ( 'NONE',  ( -17.98999999999999844, 0.000000000000000000, 0.000000000000000000 ) ) ;
#126 = DIRECTION ( 'NONE',  ( 1.000000000000000000, -0.000000000000000000, -0.000000000000000000 ) ) ;
#127 = DIRECTION ( 'NONE',  ( -1.000000000000000000, 0.000000000000000000, 0.000000000000000000 ) ) ;
#128 = ORIENTED_EDGE ( 'NONE', *, *, #171, .T. ) ;
#129 = PERSON_AND_ORGANIZATION ( #243, #117 ) ;
#130 = ORIENTED_EDGE ( 'NONE', *, *, #219, .F. ) ;
#131 = DIMENSIONAL_EXPONENTS ( 1.000000000000000000, 0.000000000000000000, 0.000000000000000000, 0.000000000000000000, 0.000000000000000000, 0.000000000000000000, 0.000000000000000000 ) ;
#132 = ORIENTED_EDGE ( 'NONE', *, *, #29, .F. ) ;
#133 = ORIENTED_EDGE ( 'NONE', *, *, #121, .F. ) ;
#134 = PERSON_AND_ORGANIZATION ( #243, #117 ) ;
#135 = ORIENTED_EDGE ( 'NONE', *, *, #201, .T. ) ;
#136 = CC_DESIGN_PERSON_AND_ORGANIZATION_ASSIGNMENT ( #129, #83, ( #202 ) ) ;
#137 = CIRCLE ( 'NONE', #140, 0.6250000000000000000 ) ;
#138 = CARTESIAN_POINT ( 'NONE',  ( 18.00000000000000000, 0.000000000000000000, 0.000000000000000000 ) ) ;
#139 = SHAPE_DEFINITION_REPRESENTATION ( #209, #10 ) ;
#140 = AXIS2_PLACEMENT_3D ( 'NONE', #226, #97, #186 ) ;
#141 = DIRECTION ( 'NONE',  ( 0.000000000000000000, 0.000000000000000000, -1.000000000000000000 ) ) ;
#142 = CARTESIAN_POINT ( 'NONE',  ( 18.00000000000000000, 0.000000000000000000, 0.000000000000000000 ) ) ;
#143 = AXIS2_PLACEMENT_3D ( 'NONE', #84, #274, #234 ) ;
#144 = LINE ( 'NONE', #164, #264 ) ;
#145 = EDGE_CURVE ( 'NONE', #108, #195, #268, .T. ) ;
#146 = CARTESIAN_POINT ( 'NONE',  ( 18.00000000000000000, 0.000000000000000000, 0.000000000000000000 ) ) ;
#147 = UNCERTAINTY_MEASURE_WITH_UNIT (LENGTH_MEASURE( 1.000000000000000082E-05 ), #62, 'distance_accuracy_value', 'NONE');
#148 = PERSON_AND_ORGANIZATION ( #243, #117 ) ;
#149 = AXIS2_PLACEMENT_3D ( 'NONE', #11, #126, #188 ) ;
#150 = CARTESIAN_POINT ( 'NONE',  ( -18.00000000000000000, 0.000000000000000000, -0.6149999999999954392 ) ) ;
#151 = PERSON_AND_ORGANIZATION_ROLE ( 'design_owner' ) ;
#152 = ORIENTED_EDGE ( 'NONE', *, *, #145, .F. ) ;
#153 = APPROVAL_ROLE ( '' ) ;
#154 = APPROVAL_DATE_TIME ( #71, #93 ) ;
#155 = CIRCLE ( 'NONE', #124, 0.6250000000000000000 ) ;
#156 = APPROVAL ( #51, 'UNSPECIFIED' ) ;
#157 = LINE ( 'NONE', #94, #236 ) ;
#158 = ADVANCED_FACE ( 'NONE', ( #191 ), #48, .T. ) ;
#159 = VECTOR ( 'NONE', #265, 39.37007874015748854 ) ;
#160 = CYLINDRICAL_SURFACE ( 'NONE', #120, 0.6250000000000000000 ) ;
#161 = DIRECTION ( 'NONE',  ( 0.000000000000000000, 0.000000000000000000, -1.000000000000000000 ) ) ;
#162 = MANIFOLD_SOLID_BREP ( 'Chamfer1', #184 ) ;
#163 = CARTESIAN_POINT ( 'NONE',  ( -17.98999999999999844, 7.654042494670957853E-17, -0.6250000000000000000 ) ) ;
#164 = CARTESIAN_POINT ( 'NONE',  ( 18.00000000000000000, 7.531577814756274572E-17, -0.6150000000000042100 ) ) ;
#165 = DIRECTION ( 'NONE',  ( -1.000000000000000000, 0.000000000000000000, 0.000000000000000000 ) ) ;
#166 = DIRECTION ( 'NONE',  ( 0.000000000000000000, 0.000000000000000000, 1.000000000000000000 ) ) ;
#167 = AXIS2_PLACEMENT_3D ( 'NONE', #269, #224, #5 ) ;
#168 = CARTESIAN_POINT ( 'NONE',  ( -18.00000000000000000, 7.592810154713561979E-17, 0.6149999999999954392 ) ) ;
#169 = SECURITY_CLASSIFICATION_LEVEL ( 'unclassified' ) ;
#170 =( NAMED_UNIT ( * ) PLANE_ANGLE_UNIT ( ) SI_UNIT ( $, .RADIAN. ) );
#171 = EDGE_CURVE ( 'NONE', #195, #108, #155, .T. ) ;
#172 = EDGE_LOOP ( 'NONE', ( #231, #215 ) ) ;
#173 = ORIENTED_EDGE ( 'NONE', *, *, #241, .T. ) ;
#174 = EDGE_LOOP ( 'NONE', ( #273, #218, #128, #132 ) ) ;
#175 = ADVANCED_FACE ( 'NONE', ( #35 ), #57, .T. ) ;
#176 = PERSON_AND_ORGANIZATION ( #243, #117 ) ;
#177 = ORIENTED_EDGE ( 'NONE', *, *, #241, .F. ) ;
#178 = COORDINATED_UNIVERSAL_TIME_OFFSET ( 5, 0, .BEHIND. ) ;
#179 = ORIENTED_EDGE ( 'NONE', *, *, #189, .T. ) ;
#180 = LOCAL_TIME ( 8, 31, 59.00000000000000000, #258 ) ;
#181 = CARTESIAN_POINT ( 'NONE',  ( -17.98999999999999844, 7.654042494670957853E-17, 0.6250000000000000000 ) ) ;
#182 = DIRECTION ( 'NONE',  ( -1.000000000000000000, -0.000000000000000000, -0.000000000000000000 ) ) ;
#183 = CC_DESIGN_DATE_AND_TIME_ASSIGNMENT ( #86, #107, ( #202 ) ) ;
#184 = CLOSED_SHELL ( 'NONE', ( #199, #19, #39, #175, #250, #12, #70, #158 ) ) ;
#185 = CC_DESIGN_PERSON_AND_ORGANIZATION_ASSIGNMENT ( #275, #151, ( #272 ) ) ;
#186 = DIRECTION ( 'NONE',  ( 0.000000000000000000, 0.000000000000000000, -1.000000000000000000 ) ) ;
#187 = DIRECTION ( 'NONE',  ( -1.000000000000000000, -0.000000000000000000, -0.000000000000000000 ) ) ;
#188 = DIRECTION ( 'NONE',  ( 0.000000000000000000, 0.000000000000000000, -1.000000000000000000 ) ) ;
#189 = EDGE_CURVE ( 'NONE', #85, #1, #3, .T. ) ;
#190 = DIRECTION ( 'NONE',  ( -1.000000000000000000, -0.000000000000000000, -0.000000000000000000 ) ) ;
#191 = FACE_OUTER_BOUND ( 'NONE', #198, .T. ) ;
#192 = EDGE_CURVE ( 'NONE', #1, #195, #79, .T. ) ;
#193 = DATE_TIME_ROLE ( 'classification_date' ) ;
#194 = ORIENTED_EDGE ( 'NONE', *, *, #247, .F. ) ;
#195 = VERTEX_POINT ( 'NONE', #163 ) ;
#196 = APPROVAL_STATUS ( 'not_yet_approved' ) ;
#197 = APPROVAL_STATUS ( 'not_yet_approved' ) ;
#198 = EDGE_LOOP ( 'NONE', ( #14, #177, #38, #152 ) ) ;
#199 = ADVANCED_FACE ( 'NONE', ( #59 ), #73, .T. ) ;
#200 = AXIS2_PLACEMENT_3D ( 'NONE', #146, #30, #13 ) ;
#201 = EDGE_CURVE ( 'NONE', #235, #64, #223, .T. ) ;
#202 = PRODUCT_DEFINITION ( 'UNKNOWN', '', #103, #37 ) ;
#203 = AXIS2_PLACEMENT_3D ( 'NONE', #245, #165, #141 ) ;
#204 = FACE_OUTER_BOUND ( 'NONE', #21, .T. ) ;
#205 = DIRECTION ( 'NONE',  ( 0.000000000000000000, 0.000000000000000000, -1.000000000000000000 ) ) ;
#206 = CARTESIAN_POINT ( 'NONE',  ( -17.98999999999999844, 0.000000000000000000, 0.6250000000000000000 ) ) ;
#207 = CC_DESIGN_APPROVAL ( #156, ( #34 ) ) ;
#208 = DIRECTION ( 'NONE',  ( 0.000000000000000000, 0.000000000000000000, -1.000000000000000000 ) ) ;
#209 = PRODUCT_DEFINITION_SHAPE ( 'NONE', 'NONE',  #202 ) ;
#210 = LOCAL_TIME ( 8, 31, 59.00000000000000000, #230 ) ;
#211 = CALENDAR_DATE ( 2023, 7, 6 ) ;
#212 = ORIENTED_EDGE ( 'NONE', *, *, #145, .T. ) ;
#213 = MECHANICAL_CONTEXT ( 'NONE', #16, 'mechanical' ) ;
#214 = PLANE ( 'NONE',  #102 ) ;
#215 = ORIENTED_EDGE ( 'NONE', *, *, #61, .T. ) ;
#216 = ORIENTED_EDGE ( 'NONE', *, *, #29, .T. ) ;
#217 = PERSON_AND_ORGANIZATION_ROLE ( 'design_supplier' ) ;
#218 = ORIENTED_EDGE ( 'NONE', *, *, #24, .T. ) ;
#219 = EDGE_CURVE ( 'NONE', #278, #235, #144, .T. ) ;
#220 = LOCAL_TIME ( 8, 31, 59.00000000000000000, #45 ) ;
#221 = CALENDAR_DATE ( 2023, 7, 6 ) ;
#222 = DIRECTION ( 'NONE',  ( 0.000000000000000000, 0.000000000000000000, 1.000000000000000000 ) ) ;
#223 = CIRCLE ( 'NONE', #203, 0.6250000000000000000 ) ;
#224 = DIRECTION ( 'NONE',  ( -1.000000000000000000, -0.000000000000000000, -0.000000000000000000 ) ) ;
#225 = DIRECTION ( 'NONE',  ( 1.000000000000000000, 0.000000000000000000, 0.000000000000000000 ) ) ;
#226 = CARTESIAN_POINT ( 'NONE',  ( 17.99000000000000199, 0.000000000000000000, 0.000000000000000000 ) ) ;
#227 = CIRCLE ( 'NONE', #167, 0.6149999999999954392 ) ;
#228 =( LENGTH_UNIT ( ) NAMED_UNIT ( * ) SI_UNIT ( $, .METRE. ) );
#229 = DIRECTION ( 'NONE',  ( 0.000000000000000000, 0.000000000000000000, -1.000000000000000000 ) ) ;
#230 = COORDINATED_UNIVERSAL_TIME_OFFSET ( 5, 0, .BEHIND. ) ;
#231 = ORIENTED_EDGE ( 'NONE', *, *, #121, .T. ) ;
#232 = AXIS2_PLACEMENT_3D ( 'NONE', #142, #187, #36 ) ;
#233 = CALENDAR_DATE ( 2023, 7, 6 ) ;
#234 = DIRECTION ( 'NONE',  ( 1.000000000000000000, 0.000000000000000000, 0.000000000000000000 ) ) ;
#235 = VERTEX_POINT ( 'NONE', #118 ) ;
#236 = VECTOR ( 'NONE', #182, 39.37007874015748143 ) ;
#237 = PERSON_AND_ORGANIZATION ( #243, #117 ) ;
#238 =( GEOMETRIC_REPRESENTATION_CONTEXT ( 3 ) GLOBAL_UNCERTAINTY_ASSIGNED_CONTEXT ( ( #147 ) ) GLOBAL_UNIT_ASSIGNED_CONTEXT ( ( #62, #170, #110 ) ) REPRESENTATION_CONTEXT ( 'NONE', 'WORKASPACE' ) );
#239 = DIRECTION ( 'NONE',  ( -1.000000000000000000, 0.000000000000000000, 0.000000000000000000 ) ) ;
#240 = CARTESIAN_POINT ( 'NONE',  ( 18.00000000000000000, 0.000000000000000000, 0.000000000000000000 ) ) ;
#241 = EDGE_CURVE ( 'NONE', #1, #85, #227, .T. ) ;
#242 = APPROVAL_DATE_TIME ( #92, #156 ) ;
#243 = PERSON ( 'UNSPECIFIED', 'UNSPECIFIED', 'UNSPECIFIED', ('UNSPECIFIED'), ('UNSPECIFIED'), ('UNSPECIFIED') ) ;
#244 = AXIS2_PLACEMENT_3D ( 'NONE', #6, #266, #100 ) ;
#245 = CARTESIAN_POINT ( 'NONE',  ( 17.99000000000000199, 0.000000000000000000, 0.000000000000000000 ) ) ;
#246 = CARTESIAN_POINT ( 'NONE',  ( 18.00000000000000000, 0.000000000000000000, 0.000000000000000000 ) ) ;
#247 = EDGE_CURVE ( 'NONE', #64, #235, #137, .T. ) ;
#248 = CONICAL_SURFACE ( 'NONE', #270, 0.6150000000000042100, 0.7853981633973936560 ) ;
#249 = DIRECTION ( 'NONE',  ( 0.000000000000000000, 0.000000000000000000, -1.000000000000000000 ) ) ;
#250 = ADVANCED_FACE ( 'NONE', ( #33 ), #81, .T. ) ;
#251 = DIRECTION ( 'NONE',  ( -0.7071067811865860975, 8.659560562354459542E-17, -0.7071067811865088260 ) ) ;
#252 = PERSON_AND_ORGANIZATION ( #243, #117 ) ;
#253 = ORIENTED_EDGE ( 'NONE', *, *, #189, .F. ) ;
#254 = APPROVAL_PERSON_ORGANIZATION ( #148, #52, #88 ) ;
#255 = APPLICATION_PROTOCOL_DEFINITION ( 'international standard', 'config_control_design', 1994, #16 ) ;
#256 = CARTESIAN_POINT ( 'NONE',  ( -18.00000000000000000, 0.000000000000000000, 0.000000000000000000 ) ) ;
#257 = EDGE_CURVE ( 'NONE', #18, #64, #267, .T. ) ;
#258 = COORDINATED_UNIVERSAL_TIME_OFFSET ( 5, 0, .BEHIND. ) ;
#259 = ORIENTED_EDGE ( 'NONE', *, *, #219, .T. ) ;
#260 = CALENDAR_DATE ( 2023, 7, 6 ) ;
#261 = EDGE_LOOP ( 'NONE', ( #91, #135, #216, #212 ) ) ;
#262 = ORIENTED_EDGE ( 'NONE', *, *, #257, .T. ) ;
#263 = LINE ( 'NONE', #77, #116 ) ;
#264 = VECTOR ( 'NONE', #251, 39.37007874015748854 ) ;
#265 = DIRECTION ( 'NONE',  ( 0.7071067811865088260, 8.659560562355404942E-17, 0.7071067811865860975 ) ) ;
#266 = DIRECTION ( 'NONE',  ( 1.000000000000000000, -0.000000000000000000, -0.000000000000000000 ) ) ;
#267 = LINE ( 'NONE', #31, #82 ) ;
#268 = CIRCLE ( 'NONE', #244, 0.6250000000000000000 ) ;
#269 = CARTESIAN_POINT ( 'NONE',  ( -18.00000000000000000, 0.000000000000000000, 0.000000000000000000 ) ) ;
#270 = AXIS2_PLACEMENT_3D ( 'NONE', #4, #127, #166 ) ;
#271 = PERSON_AND_ORGANIZATION ( #243, #117 ) ;
#272 = PRODUCT ( 'NIL20SS-036.000-SL', 'NIL20SS-036.000-SL', '', ( #213 ) ) ;
#273 = ORIENTED_EDGE ( 'NONE', *, *, #247, .T. ) ;
#274 = DIRECTION ( 'NONE',  ( 0.000000000000000000, 0.000000000000000000, 1.000000000000000000 ) ) ;
#275 = PERSON_AND_ORGANIZATION ( #243, #117 ) ;
#276 = EDGE_LOOP ( 'NONE', ( #253, #72, #44, #89 ) ) ;
#277 = APPLICATION_PROTOCOL_DEFINITION ( 'international standard', 'config_control_design', 1994, #76 ) ;
#278 = VERTEX_POINT ( 'NONE', #80 ) ;
ENDSEC;
END-ISO-10303-21;
