ISO-10303-21;
HEADER;
FILE_DESCRIPTION (( 'STEP AP203' ),
    '1' );
FILE_NAME ('NIL20SS-024.000-SL.step',
    '2023-06-07T12:31:53',
    ( '' ),
    ( '' ),
    'SwSTEP 2.0',
    'SolidWorks 2021',
    '' );
FILE_SCHEMA (( 'CONFIG_CONTROL_DESIGN' ));
ENDSEC;

DATA;
#1 = CIRCLE ( 'NONE', #59, 0.6150000000000086509 ) ;
#2 = CC_DESIGN_PERSON_AND_ORGANIZATION_ASSIGNMENT ( #13, #249, ( #163 ) ) ;
#3 = CONICAL_SURFACE ( 'NONE', #230, 0.6250000000000000000, 0.7853981633974005394 ) ;
#4 = ORIENTED_EDGE ( 'NONE', *, *, #172, .F. ) ;
#5 = CIRCLE ( 'NONE', #106, 0.6250000000000000000 ) ;
#6 = EDGE_CURVE ( 'NONE', #266, #221, #159, .T. ) ;
#7 = ORIENTED_EDGE ( 'NONE', *, *, #251, .T. ) ;
#8 = PERSON_AND_ORGANIZATION ( #43, #108 ) ;
#9 = ORIENTED_EDGE ( 'NONE', *, *, #251, .F. ) ;
#10 = AXIS2_PLACEMENT_3D ( 'NONE', #209, #191, #79 ) ;
#11 = VERTEX_POINT ( 'NONE', #75 ) ;
#12 = EDGE_LOOP ( 'NONE', ( #180, #72 ) ) ;
#13 = PERSON_AND_ORGANIZATION ( #43, #108 ) ;
#14 = PRODUCT_DEFINITION ( 'UNKNOWN', '', #163, #263 ) ;
#15 = APPROVAL_DATE_TIME ( #137, #246 ) ;
#16 = DIRECTION ( 'NONE',  ( 0.7071067811865812125, 8.659560562354516241E-17, 0.7071067811865135999 ) ) ;
#17 = APPROVAL_ROLE ( '' ) ;
#18 = CARTESIAN_POINT ( 'NONE',  ( 11.99000000000001087, 0.000000000000000000, 0.6250000000000000000 ) ) ;
#19 = DIRECTION ( 'NONE',  ( 0.000000000000000000, 0.000000000000000000, -1.000000000000000000 ) ) ;
#20 = CC_DESIGN_DATE_AND_TIME_ASSIGNMENT ( #239, #259, ( #14 ) ) ;
#21 = DIRECTION ( 'NONE',  ( 0.7071067811865812125, 0.000000000000000000, -0.7071067811865135999 ) ) ;
#22 = EDGE_CURVE ( 'NONE', #181, #185, #66, .T. ) ;
#23 = COORDINATED_UNIVERSAL_TIME_OFFSET ( 5, 0, .BEHIND. ) ;
#24 = EDGE_CURVE ( 'NONE', #11, #135, #1, .T. ) ;
#25 = CARTESIAN_POINT ( 'NONE',  ( 12.00000000000000178, 0.000000000000000000, 0.000000000000000000 ) ) ;
#26 = APPROVAL_ROLE ( '' ) ;
#27 = ADVANCED_FACE ( 'NONE', ( #33 ), #208, .T. ) ;
#28 = CARTESIAN_POINT ( 'NONE',  ( 11.99000000000001087, 7.654042494670955388E-17, -0.6250000000000000000 ) ) ;
#29 = ORIENTED_EDGE ( 'NONE', *, *, #99, .F. ) ;
#30 = CONICAL_SURFACE ( 'NONE', #129, 0.6150000000000086509, 0.7853981633975029020 ) ;
#31 = ORIENTED_EDGE ( 'NONE', *, *, #143, .F. ) ;
#32 = COORDINATED_UNIVERSAL_TIME_OFFSET ( 5, 0, .BEHIND. ) ;
#33 = FACE_OUTER_BOUND ( 'NONE', #155, .T. ) ;
#34 = ADVANCED_FACE ( 'NONE', ( #120 ), #134, .T. ) ;
#35 = AXIS2_PLACEMENT_3D ( 'NONE', #148, #254, #232 ) ;
#36 = DIRECTION ( 'NONE',  ( 1.000000000000000000, 0.000000000000000000, 0.000000000000000000 ) ) ;
#37 = DIRECTION ( 'NONE',  ( 0.000000000000000000, 0.000000000000000000, -1.000000000000000000 ) ) ;
#38 = AXIS2_PLACEMENT_3D ( 'NONE', #58, #269, #37 ) ;
#39 = CARTESIAN_POINT ( 'NONE',  ( -11.98999999999997534, 7.654042494670957853E-17, 0.6250000000000000000 ) ) ;
#40 = CC_DESIGN_PERSON_AND_ORGANIZATION_ASSIGNMENT ( #130, #114, ( #176 ) ) ;
#41 = DIRECTION ( 'NONE',  ( 1.000000000000000000, -0.000000000000000000, -0.000000000000000000 ) ) ;
#42 = LINE ( 'NONE', #39, #192 ) ;
#43 = PERSON ( 'UNSPECIFIED', 'UNSPECIFIED', 'UNSPECIFIED', ('UNSPECIFIED'), ('UNSPECIFIED'), ('UNSPECIFIED') ) ;
#44 = DIRECTION ( 'NONE',  ( 1.000000000000000000, -0.000000000000000000, -0.000000000000000000 ) ) ;
#45 =( NAMED_UNIT ( * ) PLANE_ANGLE_UNIT ( ) SI_UNIT ( $, .RADIAN. ) );
#46 = CARTESIAN_POINT ( 'NONE',  ( 0.000000000000000000, 0.000000000000000000, 0.000000000000000000 ) ) ;
#47 = CC_DESIGN_APPROVAL ( #123, ( #121 ) ) ;
#48 = VERTEX_POINT ( 'NONE', #94 ) ;
#49 = ORIENTED_EDGE ( 'NONE', *, *, #24, .T. ) ;
#50 = ORIENTED_EDGE ( 'NONE', *, *, #128, .F. ) ;
#51 = EDGE_LOOP ( 'NONE', ( #91, #136, #222, #29 ) ) ;
#52 = DIRECTION ( 'NONE',  ( -1.000000000000000000, -0.000000000000000000, -0.000000000000000000 ) ) ;
#53 = EDGE_CURVE ( 'NONE', #185, #181, #97, .T. ) ;
#54 = VECTOR ( 'NONE', #190, 39.37007874015748854 ) ;
#55 = DIRECTION ( 'NONE',  ( 1.000000000000000000, -0.000000000000000000, -0.000000000000000000 ) ) ;
#56 = UNCERTAINTY_MEASURE_WITH_UNIT (LENGTH_MEASURE( 1.000000000000000082E-05 ), #131, 'distance_accuracy_value', 'NONE');
#57 = APPROVAL_PERSON_ORGANIZATION ( #8, #195, #84 ) ;
#58 = CARTESIAN_POINT ( 'NONE',  ( 12.00000000000000178, 0.000000000000000000, 0.000000000000000000 ) ) ;
#59 = AXIS2_PLACEMENT_3D ( 'NONE', #248, #141, #225 ) ;
#60 = APPROVAL_STATUS ( 'not_yet_approved' ) ;
#61 = EDGE_CURVE ( 'NONE', #135, #11, #156, .T. ) ;
#62 = AXIS2_PLACEMENT_3D ( 'NONE', #46, #174, #277 ) ;
#63 = MANIFOLD_SOLID_BREP ( 'Chamfer1', #103 ) ;
#64 = DIRECTION ( 'NONE',  ( 0.000000000000000000, 0.000000000000000000, 1.000000000000000000 ) ) ;
#65 = ADVANCED_FACE ( 'NONE', ( #205 ), #80, .T. ) ;
#66 = CIRCLE ( 'NONE', #179, 0.6149999999999756772 ) ;
#67 = PRODUCT_RELATED_PRODUCT_CATEGORY ( 'detail', '', ( #176 ) ) ;
#68 = ORIENTED_EDGE ( 'NONE', *, *, #138, .T. ) ;
#69 = MECHANICAL_CONTEXT ( 'NONE', #158, 'mechanical' ) ;
#70 = CARTESIAN_POINT ( 'NONE',  ( 12.00000000000000178, 7.654042494670955388E-17, -0.6250000000000000000 ) ) ;
#71 = ORIENTED_EDGE ( 'NONE', *, *, #260, .F. ) ;
#72 = ORIENTED_EDGE ( 'NONE', *, *, #53, .T. ) ;
#73 = AXIS2_PLACEMENT_3D ( 'NONE', #252, #52, #147 ) ;
#74 = EDGE_CURVE ( 'NONE', #11, #223, #167, .T. ) ;
#75 = CARTESIAN_POINT ( 'NONE',  ( 12.00000000000000178, 0.000000000000000000, 0.6150000000000086509 ) ) ;
#76 = AXIS2_PLACEMENT_3D ( 'NONE', #25, #107, #64 ) ;
#77 = DIRECTION ( 'NONE',  ( 0.000000000000000000, 0.000000000000000000, -1.000000000000000000 ) ) ;
#78 = CARTESIAN_POINT ( 'NONE',  ( -11.98999999999997534, 0.000000000000000000, 0.000000000000000000 ) ) ;
#79 = DIRECTION ( 'NONE',  ( 0.000000000000000000, 0.000000000000000000, -1.000000000000000000 ) ) ;
#80 = CYLINDRICAL_SURFACE ( 'NONE', #73, 0.6250000000000000000 ) ;
#81 = CARTESIAN_POINT ( 'NONE',  ( 12.00000000000000178, 7.592810154713642097E-17, -0.6150000000000086509 ) ) ;
#82 = APPROVAL_DATE_TIME ( #173, #195 ) ;
#83 = AXIS2_PLACEMENT_3D ( 'NONE', #274, #272, #188 ) ;
#84 = APPROVAL_ROLE ( '' ) ;
#85 = DIRECTION ( 'NONE',  ( 0.000000000000000000, 0.000000000000000000, -1.000000000000000000 ) ) ;
#86 = CARTESIAN_POINT ( 'NONE',  ( -11.98999999999997534, 0.000000000000000000, 0.000000000000000000 ) ) ;
#87 = CC_DESIGN_SECURITY_CLASSIFICATION ( #121, ( #163 ) ) ;
#88 = ORIENTED_EDGE ( 'NONE', *, *, #22, .F. ) ;
#89 = ORIENTED_EDGE ( 'NONE', *, *, #172, .T. ) ;
#90 = FACE_OUTER_BOUND ( 'NONE', #51, .T. ) ;
#91 = ORIENTED_EDGE ( 'NONE', *, *, #53, .F. ) ;
#92 = DATE_AND_TIME ( #204, #153 ) ;
#93 = CIRCLE ( 'NONE', #257, 0.6250000000000000000 ) ;
#94 = CARTESIAN_POINT ( 'NONE',  ( -11.98999999999997534, 0.000000000000000000, 0.6250000000000000000 ) ) ;
#95 = APPROVAL_PERSON_ORGANIZATION ( #152, #246, #26 ) ;
#96 = CONICAL_SURFACE ( 'NONE', #276, 0.6250000000000000000, 0.7853981633974005394 ) ;
#97 = CIRCLE ( 'NONE', #122, 0.6149999999999756772 ) ;
#98 = PERSON_AND_ORGANIZATION ( #43, #108 ) ;
#99 = EDGE_CURVE ( 'NONE', #181, #221, #256, .T. ) ;
#100 = CARTESIAN_POINT ( 'NONE',  ( -12.00000000000000178, 0.000000000000000000, 0.000000000000000000 ) ) ;
#101 = FACE_OUTER_BOUND ( 'NONE', #113, .T. ) ;
#102 = CARTESIAN_POINT ( 'NONE',  ( -12.00000000000000178, 0.000000000000000000, 0.000000000000000000 ) ) ;
#103 = CLOSED_SHELL ( 'NONE', ( #278, #178, #226, #65, #27, #164, #34, #197 ) ) ;
#104 = DIRECTION ( 'NONE',  ( 1.000000000000000000, -0.000000000000000000, -0.000000000000000000 ) ) ;
#105 =( NAMED_UNIT ( * ) SI_UNIT ( $, .STERADIAN. ) SOLID_ANGLE_UNIT ( ) );
#106 = AXIS2_PLACEMENT_3D ( 'NONE', #194, #261, #85 ) ;
#107 = DIRECTION ( 'NONE',  ( -1.000000000000000000, -0.000000000000000000, -0.000000000000000000 ) ) ;
#108 = ORGANIZATION ( 'UNSPECIFIED', 'UNSPECIFIED', '' ) ;
#109 = COORDINATED_UNIVERSAL_TIME_OFFSET ( 5, 0, .BEHIND. ) ;
#110 = VECTOR ( 'NONE', #157, 39.37007874015748143 ) ;
#111 = ORIENTED_EDGE ( 'NONE', *, *, #24, .F. ) ;
#112 = VECTOR ( 'NONE', #227, 39.37007874015748143 ) ;
#113 = EDGE_LOOP ( 'NONE', ( #68, #244, #200, #4 ) ) ;
#114 = PERSON_AND_ORGANIZATION_ROLE ( 'design_owner' ) ;
#115 = PERSON_AND_ORGANIZATION ( #43, #108 ) ;
#116 = DIRECTION ( 'NONE',  ( -1.000000000000000000, -0.000000000000000000, -0.000000000000000000 ) ) ;
#117 = ORIENTED_EDGE ( 'NONE', *, *, #74, .T. ) ;
#118 = SECURITY_CLASSIFICATION_LEVEL ( 'unclassified' ) ;
#119 = FACE_OUTER_BOUND ( 'NONE', #247, .T. ) ;
#120 = FACE_OUTER_BOUND ( 'NONE', #219, .T. ) ;
#121 = SECURITY_CLASSIFICATION ( '', '', #118 ) ;
#122 = AXIS2_PLACEMENT_3D ( 'NONE', #102, #187, #19 ) ;
#123 = APPROVAL ( #243, 'UNSPECIFIED' ) ;
#124 = CARTESIAN_POINT ( 'NONE',  ( -11.98999999999997534, 7.654042494670955388E-17, -0.6250000000000000000 ) ) ;
#125 = AXIS2_PLACEMENT_3D ( 'NONE', #126, #41, #77 ) ;
#126 = CARTESIAN_POINT ( 'NONE',  ( -11.98999999999997534, 0.000000000000000000, 0.000000000000000000 ) ) ;
#127 = CARTESIAN_POINT ( 'NONE',  ( -11.98999999999997534, 0.000000000000000000, -0.6250000000000000000 ) ) ;
#128 = EDGE_CURVE ( 'NONE', #48, #221, #93, .T. ) ;
#129 = AXIS2_PLACEMENT_3D ( 'NONE', #250, #145, #229 ) ;
#130 = PERSON_AND_ORGANIZATION ( #43, #108 ) ;
#131 =( CONVERSION_BASED_UNIT ( 'INCH', #193 ) LENGTH_UNIT ( ) NAMED_UNIT ( #175 ) );
#132 = LOCAL_TIME ( 8, 31, 53.00000000000000000, #160 ) ;
#133 = PERSON_AND_ORGANIZATION ( #43, #108 ) ;
#134 = CONICAL_SURFACE ( 'NONE', #83, 0.6150000000000086509, 0.7853981633975029020 ) ;
#135 = VERTEX_POINT ( 'NONE', #81 ) ;
#136 = ORIENTED_EDGE ( 'NONE', *, *, #143, .T. ) ;
#137 = DATE_AND_TIME ( #206, #241 ) ;
#138 = EDGE_CURVE ( 'NONE', #223, #266, #238, .T. ) ;
#139 = ORIENTED_EDGE ( 'NONE', *, *, #128, .T. ) ;
#140 = APPROVAL_PERSON_ORGANIZATION ( #245, #123, #17 ) ;
#141 = DIRECTION ( 'NONE',  ( 1.000000000000000000, 0.000000000000000000, 0.000000000000000000 ) ) ;
#142 = FACE_OUTER_BOUND ( 'NONE', #12, .T. ) ;
#143 = EDGE_CURVE ( 'NONE', #185, #48, #42, .T. ) ;
#144 = CALENDAR_DATE ( 2023, 7, 6 ) ;
#145 = DIRECTION ( 'NONE',  ( -1.000000000000000000, 0.000000000000000000, 0.000000000000000000 ) ) ;
#146 = APPROVAL_DATE_TIME ( #268, #123 ) ;
#147 = DIRECTION ( 'NONE',  ( 0.000000000000000000, 0.000000000000000000, 1.000000000000000000 ) ) ;
#148 = CARTESIAN_POINT ( 'NONE',  ( 11.99000000000001087, 0.000000000000000000, 0.000000000000000000 ) ) ;
#149 = CARTESIAN_POINT ( 'NONE',  ( -12.00000000000000178, 7.592810154713441184E-17, 0.6149999999999756772 ) ) ;
#150 = ADVANCED_BREP_SHAPE_REPRESENTATION ( 'NIL20SS-024.000-SL', ( #63, #62 ), #215 ) ;
#151 = COORDINATED_UNIVERSAL_TIME_OFFSET ( 5, 0, .BEHIND. ) ;
#152 = PERSON_AND_ORGANIZATION ( #43, #108 ) ;
#153 = LOCAL_TIME ( 8, 31, 53.00000000000000000, #32 ) ;
#154 = EDGE_CURVE ( 'NONE', #221, #48, #228, .T. ) ;
#155 = EDGE_LOOP ( 'NONE', ( #49, #198 ) ) ;
#156 = CIRCLE ( 'NONE', #38, 0.6150000000000086509 ) ;
#157 = DIRECTION ( 'NONE',  ( -1.000000000000000000, -0.000000000000000000, -0.000000000000000000 ) ) ;
#158 = APPLICATION_CONTEXT ( 'configuration controlled 3d designs of mechanical parts and assemblies' ) ;
#159 = LINE ( 'NONE', #70, #110 ) ;
#160 = COORDINATED_UNIVERSAL_TIME_OFFSET ( 5, 0, .BEHIND. ) ;
#161 = ORIENTED_EDGE ( 'NONE', *, *, #260, .T. ) ;
#162 = VECTOR ( 'NONE', #21, 39.37007874015748854 ) ;
#163 = PRODUCT_DEFINITION_FORMATION_WITH_SPECIFIED_SOURCE ( 'ANY', '', #176, .NOT_KNOWN. ) ;
#164 = ADVANCED_FACE ( 'NONE', ( #142 ), #210, .F. ) ;
#165 = CARTESIAN_POINT ( 'NONE',  ( -12.00000000000000178, 0.000000000000000000, 0.000000000000000000 ) ) ;
#166 = DIRECTION ( 'NONE',  ( 0.000000000000000000, 0.000000000000000000, -1.000000000000000000 ) ) ;
#167 = LINE ( 'NONE', #211, #54 ) ;
#168 = LINE ( 'NONE', #270, #112 ) ;
#169 = CC_DESIGN_DATE_AND_TIME_ASSIGNMENT ( #92, #186, ( #121 ) ) ;
#170 = CARTESIAN_POINT ( 'NONE',  ( -11.98999999999997534, 0.000000000000000000, 0.000000000000000000 ) ) ;
#171 = DIRECTION ( 'NONE',  ( 0.000000000000000000, 0.000000000000000000, -1.000000000000000000 ) ) ;
#172 = EDGE_CURVE ( 'NONE', #223, #48, #168, .T. ) ;
#173 = DATE_AND_TIME ( #275, #253 ) ;
#174 = DIRECTION ( 'NONE',  ( 0.000000000000000000, 0.000000000000000000, 1.000000000000000000 ) ) ;
#175 = DIMENSIONAL_EXPONENTS ( 1.000000000000000000, 0.000000000000000000, 0.000000000000000000, 0.000000000000000000, 0.000000000000000000, 0.000000000000000000, 0.000000000000000000 ) ;
#176 = PRODUCT ( 'NIL20SS-024.000-SL', 'NIL20SS-024.000-SL', '', ( #69 ) ) ;
#177 = DIRECTION ( 'NONE',  ( -0.7071067811865088260, 8.659560562355404942E-17, -0.7071067811865860975 ) ) ;
#178 = ADVANCED_FACE ( 'NONE', ( #119 ), #30, .T. ) ;
#179 = AXIS2_PLACEMENT_3D ( 'NONE', #165, #116, #201 ) ;
#180 = ORIENTED_EDGE ( 'NONE', *, *, #22, .T. ) ;
#181 = VERTEX_POINT ( 'NONE', #255 ) ;
#182 = CC_DESIGN_APPROVAL ( #195, ( #14 ) ) ;
#183 = ORIENTED_EDGE ( 'NONE', *, *, #138, .F. ) ;
#184 = SHAPE_DEFINITION_REPRESENTATION ( #218, #150 ) ;
#185 = VERTEX_POINT ( 'NONE', #149 ) ;
#186 = DATE_TIME_ROLE ( 'classification_date' ) ;
#187 = DIRECTION ( 'NONE',  ( -1.000000000000000000, -0.000000000000000000, -0.000000000000000000 ) ) ;
#188 = DIRECTION ( 'NONE',  ( 0.000000000000000000, 0.000000000000000000, 1.000000000000000000 ) ) ;
#189 = CYLINDRICAL_SURFACE ( 'NONE', #76, 0.6250000000000000000 ) ;
#190 = DIRECTION ( 'NONE',  ( -0.7071067811865088260, 0.000000000000000000, 0.7071067811865860975 ) ) ;
#191 = DIRECTION ( 'NONE',  ( 1.000000000000000000, 0.000000000000000000, 0.000000000000000000 ) ) ;
#192 = VECTOR ( 'NONE', #16, 39.37007874015748854 ) ;
#193 = LENGTH_MEASURE_WITH_UNIT ( LENGTH_MEASURE( 0.02539999999999999897 ), #216 );
#194 = CARTESIAN_POINT ( 'NONE',  ( 11.99000000000001087, 0.000000000000000000, 0.000000000000000000 ) ) ;
#195 = APPROVAL ( #60, 'UNSPECIFIED' ) ;
#196 = EDGE_LOOP ( 'NONE', ( #31, #88, #240, #50 ) ) ;
#197 = ADVANCED_FACE ( 'NONE', ( #233 ), #96, .T. ) ;
#198 = ORIENTED_EDGE ( 'NONE', *, *, #61, .T. ) ;
#199 = APPLICATION_PROTOCOL_DEFINITION ( 'international standard', 'config_control_design', 1994, #237 ) ;
#200 = ORIENTED_EDGE ( 'NONE', *, *, #154, .T. ) ;
#201 = DIRECTION ( 'NONE',  ( 0.000000000000000000, 0.000000000000000000, -1.000000000000000000 ) ) ;
#202 = PERSON_AND_ORGANIZATION_ROLE ( 'classification_officer' ) ;
#203 = ORIENTED_EDGE ( 'NONE', *, *, #61, .F. ) ;
#204 = CALENDAR_DATE ( 2023, 7, 6 ) ;
#205 = FACE_OUTER_BOUND ( 'NONE', #264, .T. ) ;
#206 = CALENDAR_DATE ( 2023, 7, 6 ) ;
#207 = VECTOR ( 'NONE', #177, 39.37007874015748854 ) ;
#208 = PLANE ( 'NONE',  #10 ) ;
#209 = CARTESIAN_POINT ( 'NONE',  ( 12.00000000000000178, 0.000000000000000000, 0.000000000000000000 ) ) ;
#210 = PLANE ( 'NONE',  #236 ) ;
#211 = CARTESIAN_POINT ( 'NONE',  ( 12.00000000000000178, 0.000000000000000000, 0.6150000000000086509 ) ) ;
#212 = APPLICATION_PROTOCOL_DEFINITION ( 'international standard', 'config_control_design', 1994, #158 ) ;
#213 = CALENDAR_DATE ( 2023, 7, 6 ) ;
#214 = APPROVAL_STATUS ( 'not_yet_approved' ) ;
#215 =( GEOMETRIC_REPRESENTATION_CONTEXT ( 3 ) GLOBAL_UNCERTAINTY_ASSIGNED_CONTEXT ( ( #56 ) ) GLOBAL_UNIT_ASSIGNED_CONTEXT ( ( #131, #45, #105 ) ) REPRESENTATION_CONTEXT ( 'NONE', 'WORKASPACE' ) );
#216 =( LENGTH_UNIT ( ) NAMED_UNIT ( * ) SI_UNIT ( $, .METRE. ) );
#217 = CC_DESIGN_PERSON_AND_ORGANIZATION_ASSIGNMENT ( #133, #258, ( #14 ) ) ;
#218 = PRODUCT_DEFINITION_SHAPE ( 'NONE', 'NONE',  #14 ) ;
#219 = EDGE_LOOP ( 'NONE', ( #71, #111, #117, #9 ) ) ;
#220 = LOCAL_TIME ( 8, 31, 53.00000000000000000, #151 ) ;
#221 = VERTEX_POINT ( 'NONE', #124 ) ;
#222 = ORIENTED_EDGE ( 'NONE', *, *, #154, .F. ) ;
#223 = VERTEX_POINT ( 'NONE', #18 ) ;
#224 = PERSON_AND_ORGANIZATION_ROLE ( 'creator' ) ;
#225 = DIRECTION ( 'NONE',  ( 0.000000000000000000, 0.000000000000000000, -1.000000000000000000 ) ) ;
#226 = ADVANCED_FACE ( 'NONE', ( #101 ), #189, .T. ) ;
#227 = DIRECTION ( 'NONE',  ( -1.000000000000000000, -0.000000000000000000, -0.000000000000000000 ) ) ;
#228 = CIRCLE ( 'NONE', #125, 0.6250000000000000000 ) ;
#229 = DIRECTION ( 'NONE',  ( 0.000000000000000000, 0.000000000000000000, 1.000000000000000000 ) ) ;
#230 = AXIS2_PLACEMENT_3D ( 'NONE', #86, #44, #171 ) ;
#231 = DIRECTION ( 'NONE',  ( 0.000000000000000000, 0.000000000000000000, -1.000000000000000000 ) ) ;
#232 = DIRECTION ( 'NONE',  ( 0.000000000000000000, 0.000000000000000000, -1.000000000000000000 ) ) ;
#233 = FACE_OUTER_BOUND ( 'NONE', #196, .T. ) ;
#234 = LINE ( 'NONE', #235, #207 ) ;
#235 = CARTESIAN_POINT ( 'NONE',  ( 12.00000000000000178, 7.531577814756327574E-17, -0.6150000000000086509 ) ) ;
#236 = AXIS2_PLACEMENT_3D ( 'NONE', #100, #36, #166 ) ;
#237 = APPLICATION_CONTEXT ( 'configuration controlled 3d designs of mechanical parts and assemblies' ) ;
#238 = CIRCLE ( 'NONE', #35, 0.6250000000000000000 ) ;
#239 = DATE_AND_TIME ( #213, #220 ) ;
#240 = ORIENTED_EDGE ( 'NONE', *, *, #99, .T. ) ;
#241 = LOCAL_TIME ( 8, 31, 53.00000000000000000, #109 ) ;
#242 = CC_DESIGN_PERSON_AND_ORGANIZATION_ASSIGNMENT ( #98, #202, ( #121 ) ) ;
#243 = APPROVAL_STATUS ( 'not_yet_approved' ) ;
#244 = ORIENTED_EDGE ( 'NONE', *, *, #6, .T. ) ;
#245 = PERSON_AND_ORGANIZATION ( #43, #108 ) ;
#246 = APPROVAL ( #214, 'UNSPECIFIED' ) ;
#247 = EDGE_LOOP ( 'NONE', ( #203, #161, #183, #265 ) ) ;
#248 = CARTESIAN_POINT ( 'NONE',  ( 12.00000000000000178, 0.000000000000000000, 0.000000000000000000 ) ) ;
#249 = PERSON_AND_ORGANIZATION_ROLE ( 'design_supplier' ) ;
#250 = CARTESIAN_POINT ( 'NONE',  ( 12.00000000000000178, 0.000000000000000000, 0.000000000000000000 ) ) ;
#251 = EDGE_CURVE ( 'NONE', #266, #223, #5, .T. ) ;
#252 = CARTESIAN_POINT ( 'NONE',  ( 12.00000000000000178, 0.000000000000000000, 0.000000000000000000 ) ) ;
#253 = LOCAL_TIME ( 8, 31, 53.00000000000000000, #23 ) ;
#254 = DIRECTION ( 'NONE',  ( -1.000000000000000000, 0.000000000000000000, 0.000000000000000000 ) ) ;
#255 = CARTESIAN_POINT ( 'NONE',  ( -12.00000000000000178, 0.000000000000000000, -0.6149999999999756772 ) ) ;
#256 = LINE ( 'NONE', #127, #162 ) ;
#257 = AXIS2_PLACEMENT_3D ( 'NONE', #170, #104, #273 ) ;
#258 = PERSON_AND_ORGANIZATION_ROLE ( 'creator' ) ;
#259 = DATE_TIME_ROLE ( 'creation_date' ) ;
#260 = EDGE_CURVE ( 'NONE', #135, #266, #234, .T. ) ;
#261 = DIRECTION ( 'NONE',  ( -1.000000000000000000, 0.000000000000000000, 0.000000000000000000 ) ) ;
#262 = ORIENTED_EDGE ( 'NONE', *, *, #6, .F. ) ;
#263 = DESIGN_CONTEXT ( 'detailed design', #237, 'design' ) ;
#264 = EDGE_LOOP ( 'NONE', ( #262, #7, #89, #139 ) ) ;
#265 = ORIENTED_EDGE ( 'NONE', *, *, #74, .F. ) ;
#266 = VERTEX_POINT ( 'NONE', #28 ) ;
#267 = CC_DESIGN_APPROVAL ( #246, ( #163 ) ) ;
#268 = DATE_AND_TIME ( #144, #132 ) ;
#269 = DIRECTION ( 'NONE',  ( 1.000000000000000000, 0.000000000000000000, 0.000000000000000000 ) ) ;
#270 = CARTESIAN_POINT ( 'NONE',  ( 12.00000000000000178, 0.000000000000000000, 0.6250000000000000000 ) ) ;
#271 = CC_DESIGN_PERSON_AND_ORGANIZATION_ASSIGNMENT ( #115, #224, ( #163 ) ) ;
#272 = DIRECTION ( 'NONE',  ( -1.000000000000000000, 0.000000000000000000, 0.000000000000000000 ) ) ;
#273 = DIRECTION ( 'NONE',  ( 0.000000000000000000, 0.000000000000000000, -1.000000000000000000 ) ) ;
#274 = CARTESIAN_POINT ( 'NONE',  ( 12.00000000000000178, 0.000000000000000000, 0.000000000000000000 ) ) ;
#275 = CALENDAR_DATE ( 2023, 7, 6 ) ;
#276 = AXIS2_PLACEMENT_3D ( 'NONE', #78, #55, #231 ) ;
#277 = DIRECTION ( 'NONE',  ( 1.000000000000000000, 0.000000000000000000, 0.000000000000000000 ) ) ;
#278 = ADVANCED_FACE ( 'NONE', ( #90 ), #3, .T. ) ;
ENDSEC;
END-ISO-10303-21;
