ISO-10303-21;
HEADER;
FILE_DESCRIPTION (( 'STEP AP203' ),
    '1' );
FILE_NAME ('NIL20SS-012.000-SL.step',
    '2023-06-07T12:31:48',
    ( '' ),
    ( '' ),
    'SwSTEP 2.0',
    'SolidWorks 2021',
    '' );
FILE_SCHEMA (( 'CONFIG_CONTROL_DESIGN' ));
ENDSEC;

DATA;
#1 = CARTESIAN_POINT ( 'NONE',  ( 5.990000000000006430, 0.000000000000000000, 0.000000000000000000 ) ) ;
#2 = CC_DESIGN_PERSON_AND_ORGANIZATION_ASSIGNMENT ( #227, #44, ( #214 ) ) ;
#3 = APPLICATION_CONTEXT ( 'configuration controlled 3d designs of mechanical parts and assemblies' ) ;
#4 = APPROVAL_STATUS ( 'not_yet_approved' ) ;
#5 = PERSON ( 'UNSPECIFIED', 'UNSPECIFIED', 'UNSPECIFIED', ('UNSPECIFIED'), ('UNSPECIFIED'), ('UNSPECIFIED') ) ;
#6 = DATE_TIME_ROLE ( 'creation_date' ) ;
#7 = AXIS2_PLACEMENT_3D ( 'NONE', #216, #17, #106 ) ;
#8 = PRODUCT_DEFINITION_SHAPE ( 'NONE', 'NONE',  #98 ) ;
#9 = ORIENTED_EDGE ( 'NONE', *, *, #103, .F. ) ;
#10 = CC_DESIGN_PERSON_AND_ORGANIZATION_ASSIGNMENT ( #122, #167, ( #146 ) ) ;
#11 = CARTESIAN_POINT ( 'NONE',  ( -6.000000000000000888, 0.000000000000000000, 0.000000000000000000 ) ) ;
#12 = DIRECTION ( 'NONE',  ( -1.000000000000000000, 0.000000000000000000, 0.000000000000000000 ) ) ;
#13 = CALENDAR_DATE ( 2023, 7, 6 ) ;
#14 = ORIENTED_EDGE ( 'NONE', *, *, #233, .F. ) ;
#15 = CARTESIAN_POINT ( 'NONE',  ( 6.000000000000000888, 0.000000000000000000, 0.6150000000000064304 ) ) ;
#16 = DIRECTION ( 'NONE',  ( 1.000000000000000000, -0.000000000000000000, -0.000000000000000000 ) ) ;
#17 = DIRECTION ( 'NONE',  ( -1.000000000000000000, 0.000000000000000000, 0.000000000000000000 ) ) ;
#18 = DIMENSIONAL_EXPONENTS ( 1.000000000000000000, 0.000000000000000000, 0.000000000000000000, 0.000000000000000000, 0.000000000000000000, 0.000000000000000000, 0.000000000000000000 ) ;
#19 = VECTOR ( 'NONE', #128, 39.37007874015748143 ) ;
#20 = LOCAL_TIME ( 8, 31, 48.00000000000000000, #189 ) ;
#21 = DIRECTION ( 'NONE',  ( 0.000000000000000000, 0.000000000000000000, -1.000000000000000000 ) ) ;
#22 = CARTESIAN_POINT ( 'NONE',  ( 6.000000000000000888, 7.531577814756300457E-17, -0.6150000000000064304 ) ) ;
#23 = PERSON_AND_ORGANIZATION ( #5, #79 ) ;
#24 = COORDINATED_UNIVERSAL_TIME_OFFSET ( 5, 0, .BEHIND. ) ;
#25 = APPROVAL ( #273, 'UNSPECIFIED' ) ;
#26 = CLOSED_SHELL ( 'NONE', ( #51, #121, #117, #127, #181, #138, #241, #67 ) ) ;
#27 =( GEOMETRIC_REPRESENTATION_CONTEXT ( 3 ) GLOBAL_UNCERTAINTY_ASSIGNED_CONTEXT ( ( #198 ) ) GLOBAL_UNIT_ASSIGNED_CONTEXT ( ( #183, #229, #68 ) ) REPRESENTATION_CONTEXT ( 'NONE', 'WORKASPACE' ) );
#28 = SHAPE_DEFINITION_REPRESENTATION ( #8, #134 ) ;
#29 = CC_DESIGN_APPROVAL ( #223, ( #98 ) ) ;
#30 = PERSON_AND_ORGANIZATION_ROLE ( 'design_supplier' ) ;
#31 = ORIENTED_EDGE ( 'NONE', *, *, #210, .F. ) ;
#32 = CONICAL_SURFACE ( 'NONE', #221, 0.6250000000000000000, 0.7853981633974551624 ) ;
#33 = ORIENTED_EDGE ( 'NONE', *, *, #162, .F. ) ;
#34 = CARTESIAN_POINT ( 'NONE',  ( 6.000000000000000888, 7.592810154713628539E-17, -0.6150000000000064304 ) ) ;
#35 = EDGE_CURVE ( 'NONE', #245, #264, #37, .T. ) ;
#36 = PERSON_AND_ORGANIZATION_ROLE ( 'creator' ) ;
#37 = LINE ( 'NONE', #15, #193 ) ;
#38 = CARTESIAN_POINT ( 'NONE',  ( -5.989999999999990443, 0.000000000000000000, 0.000000000000000000 ) ) ;
#39 = LINE ( 'NONE', #261, #19 ) ;
#40 = DIRECTION ( 'NONE',  ( -1.000000000000000000, 0.000000000000000000, 0.000000000000000000 ) ) ;
#41 = DIRECTION ( 'NONE',  ( 0.000000000000000000, 0.000000000000000000, -1.000000000000000000 ) ) ;
#42 = CARTESIAN_POINT ( 'NONE',  ( 5.990000000000006430, 0.000000000000000000, 0.6250000000000000000 ) ) ;
#43 = ORIENTED_EDGE ( 'NONE', *, *, #275, .T. ) ;
#44 = PERSON_AND_ORGANIZATION_ROLE ( 'design_owner' ) ;
#45 = EDGE_LOOP ( 'NONE', ( #93, #212 ) ) ;
#46 = VECTOR ( 'NONE', #266, 39.37007874015748143 ) ;
#47 = AXIS2_PLACEMENT_3D ( 'NONE', #38, #71, #257 ) ;
#48 = CONICAL_SURFACE ( 'NONE', #47, 0.6250000000000000000, 0.7853981633974551624 ) ;
#49 = LENGTH_MEASURE_WITH_UNIT ( LENGTH_MEASURE( 0.02539999999999999897 ), #92 );
#50 = ORIENTED_EDGE ( 'NONE', *, *, #35, .F. ) ;
#51 = ADVANCED_FACE ( 'NONE', ( #172 ), #32, .T. ) ;
#52 = APPLICATION_PROTOCOL_DEFINITION ( 'international standard', 'config_control_design', 1994, #150 ) ;
#53 = ORIENTED_EDGE ( 'NONE', *, *, #162, .T. ) ;
#54 = DIRECTION ( 'NONE',  ( -1.000000000000000000, -0.000000000000000000, -0.000000000000000000 ) ) ;
#55 = CARTESIAN_POINT ( 'NONE',  ( 6.000000000000000888, 0.000000000000000000, 0.6250000000000000000 ) ) ;
#56 = CIRCLE ( 'NONE', #268, 0.6150000000000064304 ) ;
#57 = ORIENTED_EDGE ( 'NONE', *, *, #191, .T. ) ;
#58 = PERSON_AND_ORGANIZATION ( #5, #79 ) ;
#59 = ORIENTED_EDGE ( 'NONE', *, *, #202, .T. ) ;
#60 = ORIENTED_EDGE ( 'NONE', *, *, #176, .F. ) ;
#61 = DIRECTION ( 'NONE',  ( 1.000000000000000000, 0.000000000000000000, 0.000000000000000000 ) ) ;
#62 = DIRECTION ( 'NONE',  ( -1.000000000000000000, 0.000000000000000000, 0.000000000000000000 ) ) ;
#63 = CARTESIAN_POINT ( 'NONE',  ( 6.000000000000000888, 0.000000000000000000, 0.000000000000000000 ) ) ;
#64 = DATE_AND_TIME ( #225, #158 ) ;
#65 = APPROVAL ( #204, 'UNSPECIFIED' ) ;
#66 = ORIENTED_EDGE ( 'NONE', *, *, #35, .T. ) ;
#67 = ADVANCED_FACE ( 'NONE', ( #238 ), #48, .T. ) ;
#68 =( NAMED_UNIT ( * ) SI_UNIT ( $, .STERADIAN. ) SOLID_ANGLE_UNIT ( ) );
#69 = CIRCLE ( 'NONE', #195, 0.6250000000000000000 ) ;
#70 = CALENDAR_DATE ( 2023, 7, 6 ) ;
#71 = DIRECTION ( 'NONE',  ( 1.000000000000000000, -0.000000000000000000, -0.000000000000000000 ) ) ;
#72 = SECURITY_CLASSIFICATION_LEVEL ( 'unclassified' ) ;
#73 = DIRECTION ( 'NONE',  ( 0.000000000000000000, 0.000000000000000000, -1.000000000000000000 ) ) ;
#74 = VECTOR ( 'NONE', #209, 39.37007874015748143 ) ;
#75 = DIRECTION ( 'NONE',  ( 1.000000000000000000, 0.000000000000000000, 0.000000000000000000 ) ) ;
#76 = LINE ( 'NONE', #171, #129 ) ;
#77 = COORDINATED_UNIVERSAL_TIME_OFFSET ( 5, 0, .BEHIND. ) ;
#78 = ORIENTED_EDGE ( 'NONE', *, *, #103, .T. ) ;
#79 = ORGANIZATION ( 'UNSPECIFIED', 'UNSPECIFIED', '' ) ;
#80 = CC_DESIGN_DATE_AND_TIME_ASSIGNMENT ( #164, #115, ( #146 ) ) ;
#81 = DIRECTION ( 'NONE',  ( 1.000000000000000000, 0.000000000000000000, 0.000000000000000000 ) ) ;
#82 = CIRCLE ( 'NONE', #105, 0.6250000000000000000 ) ;
#83 = MANIFOLD_SOLID_BREP ( 'Chamfer1', #26 ) ;
#84 = CARTESIAN_POINT ( 'NONE',  ( -5.989999999999990443, 0.000000000000000000, 0.000000000000000000 ) ) ;
#85 = CC_DESIGN_APPROVAL ( #65, ( #186 ) ) ;
#86 = EDGE_CURVE ( 'NONE', #248, #160, #87, .T. ) ;
#87 = CIRCLE ( 'NONE', #259, 0.6149999999999898881 ) ;
#88 = DIRECTION ( 'NONE',  ( 1.000000000000000000, 0.000000000000000000, 0.000000000000000000 ) ) ;
#89 = VECTOR ( 'NONE', #199, 39.37007874015748854 ) ;
#90 = PRODUCT_RELATED_PRODUCT_CATEGORY ( 'detail', '', ( #214 ) ) ;
#91 = ORIENTED_EDGE ( 'NONE', *, *, #155, .T. ) ;
#92 =( LENGTH_UNIT ( ) NAMED_UNIT ( * ) SI_UNIT ( $, .METRE. ) );
#93 = ORIENTED_EDGE ( 'NONE', *, *, #86, .T. ) ;
#94 = AXIS2_PLACEMENT_3D ( 'NONE', #250, #247, #88 ) ;
#95 = EDGE_LOOP ( 'NONE', ( #57, #53, #91, #277 ) ) ;
#96 = DATE_AND_TIME ( #13, #107 ) ;
#97 = DIRECTION ( 'NONE',  ( -0.7071067811865474617, 0.000000000000000000, 0.7071067811865474617 ) ) ;
#98 = PRODUCT_DEFINITION ( 'UNKNOWN', '', #186, #156 ) ;
#99 = APPROVAL_DATE_TIME ( #231, #25 ) ;
#100 = FACE_OUTER_BOUND ( 'NONE', #194, .T. ) ;
#101 = DIRECTION ( 'NONE',  ( 0.000000000000000000, 0.000000000000000000, -1.000000000000000000 ) ) ;
#102 = ORIENTED_EDGE ( 'NONE', *, *, #233, .T. ) ;
#103 = EDGE_CURVE ( 'NONE', #230, #133, #82, .T. ) ;
#104 = DIRECTION ( 'NONE',  ( 0.7071067811865426878, 0.000000000000000000, -0.7071067811865523467 ) ) ;
#105 = AXIS2_PLACEMENT_3D ( 'NONE', #124, #16, #118 ) ;
#106 = DIRECTION ( 'NONE',  ( 0.000000000000000000, 0.000000000000000000, 1.000000000000000000 ) ) ;
#107 = LOCAL_TIME ( 8, 31, 48.00000000000000000, #77 ) ;
#108 = CARTESIAN_POINT ( 'NONE',  ( -5.989999999999990443, 7.654042494670957853E-17, 0.6250000000000000000 ) ) ;
#109 = EDGE_CURVE ( 'NONE', #264, #230, #165, .T. ) ;
#110 = PERSON_AND_ORGANIZATION_ROLE ( 'creator' ) ;
#111 = CALENDAR_DATE ( 2023, 7, 6 ) ;
#112 = APPROVAL_PERSON_ORGANIZATION ( #58, #25, #142 ) ;
#113 = APPROVAL_PERSON_ORGANIZATION ( #23, #223, #179 ) ;
#114 = VERTEX_POINT ( 'NONE', #34 ) ;
#115 = DATE_TIME_ROLE ( 'classification_date' ) ;
#116 = DIRECTION ( 'NONE',  ( 0.000000000000000000, 0.000000000000000000, 1.000000000000000000 ) ) ;
#117 = ADVANCED_FACE ( 'NONE', ( #254 ), #145, .T. ) ;
#118 = DIRECTION ( 'NONE',  ( 0.000000000000000000, 0.000000000000000000, -1.000000000000000000 ) ) ;
#119 = APPROVAL_ROLE ( '' ) ;
#120 = DIRECTION ( 'NONE',  ( 0.000000000000000000, 0.000000000000000000, 1.000000000000000000 ) ) ;
#121 = ADVANCED_FACE ( 'NONE', ( #144 ), #246, .T. ) ;
#122 = PERSON_AND_ORGANIZATION ( #5, #79 ) ;
#123 = DIRECTION ( 'NONE',  ( 1.000000000000000000, -0.000000000000000000, -0.000000000000000000 ) ) ;
#124 = CARTESIAN_POINT ( 'NONE',  ( -5.989999999999990443, 0.000000000000000000, 0.000000000000000000 ) ) ;
#125 = AXIS2_PLACEMENT_3D ( 'NONE', #278, #81, #151 ) ;
#126 = PLANE ( 'NONE',  #255 ) ;
#127 = ADVANCED_FACE ( 'NONE', ( #100 ), #272, .T. ) ;
#128 = DIRECTION ( 'NONE',  ( -1.000000000000000000, -0.000000000000000000, -0.000000000000000000 ) ) ;
#129 = VECTOR ( 'NONE', #104, 39.37007874015748143 ) ;
#130 = DIRECTION ( 'NONE',  ( 0.000000000000000000, 0.000000000000000000, -1.000000000000000000 ) ) ;
#131 = CC_DESIGN_PERSON_AND_ORGANIZATION_ASSIGNMENT ( #169, #30, ( #186 ) ) ;
#132 = CARTESIAN_POINT ( 'NONE',  ( -5.989999999999990443, 0.000000000000000000, 0.6250000000000000000 ) ) ;
#133 = VERTEX_POINT ( 'NONE', #271 ) ;
#134 = ADVANCED_BREP_SHAPE_REPRESENTATION ( 'NIL20SS-012.000-SL', ( #83, #94 ), #27 ) ;
#135 = AXIS2_PLACEMENT_3D ( 'NONE', #215, #54, #185 ) ;
#136 = PERSON_AND_ORGANIZATION ( #5, #79 ) ;
#137 = ORIENTED_EDGE ( 'NONE', *, *, #153, .T. ) ;
#138 = ADVANCED_FACE ( 'NONE', ( #207 ), #211, .F. ) ;
#139 = APPLICATION_PROTOCOL_DEFINITION ( 'international standard', 'config_control_design', 1994, #3 ) ;
#140 = ORIENTED_EDGE ( 'NONE', *, *, #210, .T. ) ;
#141 = CIRCLE ( 'NONE', #253, 0.6149999999999898881 ) ;
#142 = APPROVAL_ROLE ( '' ) ;
#143 = DIRECTION ( 'NONE',  ( -1.000000000000000000, -0.000000000000000000, -0.000000000000000000 ) ) ;
#144 = FACE_OUTER_BOUND ( 'NONE', #201, .T. ) ;
#145 = CYLINDRICAL_SURFACE ( 'NONE', #135, 0.6250000000000000000 ) ;
#146 = SECURITY_CLASSIFICATION ( '', '', #72 ) ;
#147 = EDGE_LOOP ( 'NONE', ( #224, #43, #205, #190 ) ) ;
#148 = LOCAL_TIME ( 8, 31, 48.00000000000000000, #208 ) ;
#149 = CARTESIAN_POINT ( 'NONE',  ( -5.989999999999990443, 0.000000000000000000, 0.000000000000000000 ) ) ;
#150 = APPLICATION_CONTEXT ( 'configuration controlled 3d designs of mechanical parts and assemblies' ) ;
#151 = DIRECTION ( 'NONE',  ( 0.000000000000000000, 0.000000000000000000, -1.000000000000000000 ) ) ;
#152 = DIRECTION ( 'NONE',  ( 0.000000000000000000, 0.000000000000000000, -1.000000000000000000 ) ) ;
#153 = EDGE_CURVE ( 'NONE', #248, #133, #76, .T. ) ;
#154 = DIRECTION ( 'NONE',  ( 0.000000000000000000, 0.000000000000000000, -1.000000000000000000 ) ) ;
#155 = EDGE_CURVE ( 'NONE', #133, #230, #170, .T. ) ;
#156 = DESIGN_CONTEXT ( 'detailed design', #150, 'design' ) ;
#157 = DIRECTION ( 'NONE',  ( -1.000000000000000000, -0.000000000000000000, -0.000000000000000000 ) ) ;
#158 = LOCAL_TIME ( 8, 31, 48.00000000000000000, #263 ) ;
#159 = CARTESIAN_POINT ( 'NONE',  ( 5.990000000000006430, 7.654042494670955388E-17, -0.6250000000000000000 ) ) ;
#160 = VERTEX_POINT ( 'NONE', #262 ) ;
#161 = CONICAL_SURFACE ( 'NONE', #7, 0.6150000000000064304, 0.7853981633974482790 ) ;
#162 = EDGE_CURVE ( 'NONE', #269, #133, #39, .T. ) ;
#163 = DIRECTION ( 'NONE',  ( -1.000000000000000000, -0.000000000000000000, -0.000000000000000000 ) ) ;
#164 = DATE_AND_TIME ( #70, #20 ) ;
#165 = LINE ( 'NONE', #55, #74 ) ;
#166 = APPROVAL_PERSON_ORGANIZATION ( #265, #65, #119 ) ;
#167 = PERSON_AND_ORGANIZATION_ROLE ( 'classification_officer' ) ;
#168 = CARTESIAN_POINT ( 'NONE',  ( 6.000000000000000888, 0.000000000000000000, 0.000000000000000000 ) ) ;
#169 = PERSON_AND_ORGANIZATION ( #5, #79 ) ;
#170 = CIRCLE ( 'NONE', #177, 0.6250000000000000000 ) ;
#171 = CARTESIAN_POINT ( 'NONE',  ( -5.989999999999990443, 0.000000000000000000, -0.6250000000000000000 ) ) ;
#172 = FACE_OUTER_BOUND ( 'NONE', #147, .T. ) ;
#173 = DIRECTION ( 'NONE',  ( 0.000000000000000000, 0.000000000000000000, -1.000000000000000000 ) ) ;
#174 = CARTESIAN_POINT ( 'NONE',  ( 6.000000000000000888, 0.000000000000000000, 0.6150000000000064304 ) ) ;
#175 = CC_DESIGN_APPROVAL ( #25, ( #146 ) ) ;
#176 = EDGE_CURVE ( 'NONE', #245, #114, #56, .T. ) ;
#177 = AXIS2_PLACEMENT_3D ( 'NONE', #84, #217, #152 ) ;
#178 = CARTESIAN_POINT ( 'NONE',  ( -6.000000000000000888, 0.000000000000000000, 0.000000000000000000 ) ) ;
#179 = APPROVAL_ROLE ( '' ) ;
#180 = EDGE_LOOP ( 'NONE', ( #31, #60, #66, #256 ) ) ;
#181 = ADVANCED_FACE ( 'NONE', ( #243 ), #126, .T. ) ;
#182 = LINE ( 'NONE', #108, #46 ) ;
#183 =( CONVERSION_BASED_UNIT ( 'INCH', #49 ) LENGTH_UNIT ( ) NAMED_UNIT ( #18 ) );
#184 = CC_DESIGN_PERSON_AND_ORGANIZATION_ASSIGNMENT ( #136, #110, ( #98 ) ) ;
#185 = DIRECTION ( 'NONE',  ( 0.000000000000000000, 0.000000000000000000, 1.000000000000000000 ) ) ;
#186 = PRODUCT_DEFINITION_FORMATION_WITH_SPECIFIED_SOURCE ( 'ANY', '', #214, .NOT_KNOWN. ) ;
#187 = CARTESIAN_POINT ( 'NONE',  ( -6.000000000000000888, 0.000000000000000000, 0.000000000000000000 ) ) ;
#188 = CIRCLE ( 'NONE', #125, 0.6150000000000064304 ) ;
#189 = COORDINATED_UNIVERSAL_TIME_OFFSET ( 5, 0, .BEHIND. ) ;
#190 = ORIENTED_EDGE ( 'NONE', *, *, #153, .F. ) ;
#191 = EDGE_CURVE ( 'NONE', #264, #269, #213, .T. ) ;
#192 = DIRECTION ( 'NONE',  ( 0.000000000000000000, 0.000000000000000000, -1.000000000000000000 ) ) ;
#193 = VECTOR ( 'NONE', #97, 39.37007874015748854 ) ;
#194 = EDGE_LOOP ( 'NONE', ( #33, #59, #274, #78 ) ) ;
#195 = AXIS2_PLACEMENT_3D ( 'NONE', #242, #40, #130 ) ;
#196 = CARTESIAN_POINT ( 'NONE',  ( 6.000000000000000888, 0.000000000000000000, 0.000000000000000000 ) ) ;
#197 = AXIS2_PLACEMENT_3D ( 'NONE', #11, #75, #101 ) ;
#198 = UNCERTAINTY_MEASURE_WITH_UNIT (LENGTH_MEASURE( 1.000000000000000082E-05 ), #183, 'distance_accuracy_value', 'NONE');
#199 = DIRECTION ( 'NONE',  ( -0.7071067811865474617, 8.659560562354932858E-17, -0.7071067811865474617 ) ) ;
#200 = DATE_AND_TIME ( #111, #218 ) ;
#201 = EDGE_LOOP ( 'NONE', ( #14, #140, #258, #50 ) ) ;
#202 = EDGE_CURVE ( 'NONE', #269, #264, #69, .T. ) ;
#203 = EDGE_LOOP ( 'NONE', ( #237, #232, #137, #9 ) ) ;
#204 = APPROVAL_STATUS ( 'not_yet_approved' ) ;
#205 = ORIENTED_EDGE ( 'NONE', *, *, #155, .F. ) ;
#206 = CALENDAR_DATE ( 2023, 7, 6 ) ;
#207 = FACE_OUTER_BOUND ( 'NONE', #45, .T. ) ;
#208 = COORDINATED_UNIVERSAL_TIME_OFFSET ( 5, 0, .BEHIND. ) ;
#209 = DIRECTION ( 'NONE',  ( -1.000000000000000000, -0.000000000000000000, -0.000000000000000000 ) ) ;
#210 = EDGE_CURVE ( 'NONE', #114, #269, #220, .T. ) ;
#211 = PLANE ( 'NONE',  #197 ) ;
#212 = ORIENTED_EDGE ( 'NONE', *, *, #228, .T. ) ;
#213 = CIRCLE ( 'NONE', #249, 0.6250000000000000000 ) ;
#214 = PRODUCT ( 'NIL20SS-012.000-SL', 'NIL20SS-012.000-SL', '', ( #244 ) ) ;
#215 = CARTESIAN_POINT ( 'NONE',  ( 6.000000000000000888, 0.000000000000000000, 0.000000000000000000 ) ) ;
#216 = CARTESIAN_POINT ( 'NONE',  ( 6.000000000000000888, 0.000000000000000000, 0.000000000000000000 ) ) ;
#217 = DIRECTION ( 'NONE',  ( 1.000000000000000000, -0.000000000000000000, -0.000000000000000000 ) ) ;
#218 = LOCAL_TIME ( 8, 31, 48.00000000000000000, #24 ) ;
#219 = CC_DESIGN_PERSON_AND_ORGANIZATION_ASSIGNMENT ( #251, #36, ( #186 ) ) ;
#220 = LINE ( 'NONE', #22, #89 ) ;
#221 = AXIS2_PLACEMENT_3D ( 'NONE', #149, #123, #73 ) ;
#222 = APPROVAL_DATE_TIME ( #64, #223 ) ;
#223 = APPROVAL ( #4, 'UNSPECIFIED' ) ;
#224 = ORIENTED_EDGE ( 'NONE', *, *, #228, .F. ) ;
#225 = CALENDAR_DATE ( 2023, 7, 6 ) ;
#226 = ORIENTED_EDGE ( 'NONE', *, *, #176, .T. ) ;
#227 = PERSON_AND_ORGANIZATION ( #5, #79 ) ;
#228 = EDGE_CURVE ( 'NONE', #160, #248, #141, .T. ) ;
#229 =( NAMED_UNIT ( * ) PLANE_ANGLE_UNIT ( ) SI_UNIT ( $, .RADIAN. ) );
#230 = VERTEX_POINT ( 'NONE', #132 ) ;
#231 = DATE_AND_TIME ( #206, #148 ) ;
#232 = ORIENTED_EDGE ( 'NONE', *, *, #86, .F. ) ;
#233 = EDGE_CURVE ( 'NONE', #114, #245, #188, .T. ) ;
#234 = AXIS2_PLACEMENT_3D ( 'NONE', #252, #143, #116 ) ;
#235 = APPROVAL_DATE_TIME ( #96, #65 ) ;
#236 = EDGE_LOOP ( 'NONE', ( #226, #102 ) ) ;
#237 = ORIENTED_EDGE ( 'NONE', *, *, #275, .F. ) ;
#238 = FACE_OUTER_BOUND ( 'NONE', #203, .T. ) ;
#239 = FACE_OUTER_BOUND ( 'NONE', #180, .T. ) ;
#240 = DIRECTION ( 'NONE',  ( 1.000000000000000000, 0.000000000000000000, 0.000000000000000000 ) ) ;
#241 = ADVANCED_FACE ( 'NONE', ( #239 ), #161, .T. ) ;
#242 = CARTESIAN_POINT ( 'NONE',  ( 5.990000000000006430, 0.000000000000000000, 0.000000000000000000 ) ) ;
#243 = FACE_OUTER_BOUND ( 'NONE', #236, .T. ) ;
#244 = MECHANICAL_CONTEXT ( 'NONE', #3, 'mechanical' ) ;
#245 = VERTEX_POINT ( 'NONE', #174 ) ;
#246 = CONICAL_SURFACE ( 'NONE', #276, 0.6150000000000064304, 0.7853981633974482790 ) ;
#247 = DIRECTION ( 'NONE',  ( 0.000000000000000000, 0.000000000000000000, 1.000000000000000000 ) ) ;
#248 = VERTEX_POINT ( 'NONE', #260 ) ;
#249 = AXIS2_PLACEMENT_3D ( 'NONE', #1, #62, #154 ) ;
#250 = CARTESIAN_POINT ( 'NONE',  ( 0.000000000000000000, 0.000000000000000000, 0.000000000000000000 ) ) ;
#251 = PERSON_AND_ORGANIZATION ( #5, #79 ) ;
#252 = CARTESIAN_POINT ( 'NONE',  ( 6.000000000000000888, 0.000000000000000000, 0.000000000000000000 ) ) ;
#253 = AXIS2_PLACEMENT_3D ( 'NONE', #178, #157, #41 ) ;
#254 = FACE_OUTER_BOUND ( 'NONE', #95, .T. ) ;
#255 = AXIS2_PLACEMENT_3D ( 'NONE', #196, #61, #21 ) ;
#256 = ORIENTED_EDGE ( 'NONE', *, *, #202, .F. ) ;
#257 = DIRECTION ( 'NONE',  ( 0.000000000000000000, 0.000000000000000000, -1.000000000000000000 ) ) ;
#258 = ORIENTED_EDGE ( 'NONE', *, *, #191, .F. ) ;
#259 = AXIS2_PLACEMENT_3D ( 'NONE', #187, #163, #192 ) ;
#260 = CARTESIAN_POINT ( 'NONE',  ( -6.000000000000000888, 0.000000000000000000, -0.6149999999999898881 ) ) ;
#261 = CARTESIAN_POINT ( 'NONE',  ( 6.000000000000000888, 7.654042494670955388E-17, -0.6250000000000000000 ) ) ;
#262 = CARTESIAN_POINT ( 'NONE',  ( -6.000000000000000888, 7.592810154713528698E-17, 0.6149999999999898881 ) ) ;
#263 = COORDINATED_UNIVERSAL_TIME_OFFSET ( 5, 0, .BEHIND. ) ;
#264 = VERTEX_POINT ( 'NONE', #42 ) ;
#265 = PERSON_AND_ORGANIZATION ( #5, #79 ) ;
#266 = DIRECTION ( 'NONE',  ( 0.7071067811865426878, 8.659560562354992023E-17, 0.7071067811865523467 ) ) ;
#267 = CC_DESIGN_DATE_AND_TIME_ASSIGNMENT ( #200, #6, ( #98 ) ) ;
#268 = AXIS2_PLACEMENT_3D ( 'NONE', #63, #240, #173 ) ;
#269 = VERTEX_POINT ( 'NONE', #159 ) ;
#270 = CC_DESIGN_SECURITY_CLASSIFICATION ( #146, ( #186 ) ) ;
#271 = CARTESIAN_POINT ( 'NONE',  ( -5.989999999999990443, 7.654042494670955388E-17, -0.6250000000000000000 ) ) ;
#272 = CYLINDRICAL_SURFACE ( 'NONE', #234, 0.6250000000000000000 ) ;
#273 = APPROVAL_STATUS ( 'not_yet_approved' ) ;
#274 = ORIENTED_EDGE ( 'NONE', *, *, #109, .T. ) ;
#275 = EDGE_CURVE ( 'NONE', #160, #230, #182, .T. ) ;
#276 = AXIS2_PLACEMENT_3D ( 'NONE', #168, #12, #120 ) ;
#277 = ORIENTED_EDGE ( 'NONE', *, *, #109, .F. ) ;
#278 = CARTESIAN_POINT ( 'NONE',  ( 6.000000000000000888, 0.000000000000000000, 0.000000000000000000 ) ) ;
ENDSEC;
END-ISO-10303-21;
