ISO-10303-21;
HEADER;
FILE_DESCRIPTION (( 'STEP AP203' ),
    '1' );
FILE_NAME ('NIL20-036.000-SL.step',
    '2023-06-07T12:31:43',
    ( '' ),
    ( '' ),
    'SwSTEP 2.0',
    'SolidWorks 2021',
    '' );
FILE_SCHEMA (( 'CONFIG_CONTROL_DESIGN' ));
ENDSEC;

DATA;
#1 = PERSON_AND_ORGANIZATION ( #231, #251 ) ;
#2 = CALENDAR_DATE ( 2023, 7, 6 ) ;
#3 = EDGE_CURVE ( 'NONE', #157, #80, #6, .T. ) ;
#4 = AXIS2_PLACEMENT_3D ( 'NONE', #52, #161, #50 ) ;
#5 = APPROVAL_ROLE ( '' ) ;
#6 = CIRCLE ( 'NONE', #170, 0.6250000000000000000 ) ;
#7 = ORIENTED_EDGE ( 'NONE', *, *, #62, .T. ) ;
#8 =( GEOMETRIC_REPRESENTATION_CONTEXT ( 3 ) GLOBAL_UNCERTAINTY_ASSIGNED_CONTEXT ( ( #49 ) ) GLOBAL_UNIT_ASSIGNED_CONTEXT ( ( #32, #249, #33 ) ) REPRESENTATION_CONTEXT ( 'NONE', 'WORKASPACE' ) );
#9 = CARTESIAN_POINT ( 'NONE',  ( 18.00000000000000000, 0.000000000000000000, 0.000000000000000000 ) ) ;
#10 = DIRECTION ( 'NONE',  ( 1.000000000000000000, 0.000000000000000000, 0.000000000000000000 ) ) ;
#11 = CC_DESIGN_DATE_AND_TIME_ASSIGNMENT ( #73, #129, ( #162 ) ) ;
#12 = CARTESIAN_POINT ( 'NONE',  ( -17.98999999999999844, 0.000000000000000000, 0.6250000000000000000 ) ) ;
#13 = LINE ( 'NONE', #98, #237 ) ;
#14 = DIRECTION ( 'NONE',  ( 1.000000000000000000, 0.000000000000000000, 0.000000000000000000 ) ) ;
#15 = CIRCLE ( 'NONE', #240, 0.6149999999999954392 ) ;
#16 = PRODUCT_DEFINITION_SHAPE ( 'NONE', 'NONE',  #162 ) ;
#17 = DIRECTION ( 'NONE',  ( 0.000000000000000000, 0.000000000000000000, 1.000000000000000000 ) ) ;
#18 = PERSON_AND_ORGANIZATION ( #231, #251 ) ;
#19 = ORIENTED_EDGE ( 'NONE', *, *, #87, .T. ) ;
#20 = PERSON_AND_ORGANIZATION_ROLE ( 'creator' ) ;
#21 = APPROVAL_ROLE ( '' ) ;
#22 = PERSON_AND_ORGANIZATION ( #231, #251 ) ;
#23 = CARTESIAN_POINT ( 'NONE',  ( -18.00000000000000000, 0.000000000000000000, 0.000000000000000000 ) ) ;
#24 = AXIS2_PLACEMENT_3D ( 'NONE', #190, #188, #192 ) ;
#25 = FACE_OUTER_BOUND ( 'NONE', #257, .T. ) ;
#26 = EDGE_CURVE ( 'NONE', #132, #68, #202, .T. ) ;
#27 = LINE ( 'NONE', #118, #258 ) ;
#28 = DIRECTION ( 'NONE',  ( -1.000000000000000000, 0.000000000000000000, 0.000000000000000000 ) ) ;
#29 = LINE ( 'NONE', #140, #42 ) ;
#30 = AXIS2_PLACEMENT_3D ( 'NONE', #116, #10, #266 ) ;
#31 = DIRECTION ( 'NONE',  ( 0.000000000000000000, 0.000000000000000000, -1.000000000000000000 ) ) ;
#32 =( CONVERSION_BASED_UNIT ( 'INCH', #274 ) LENGTH_UNIT ( ) NAMED_UNIT ( #71 ) );
#33 =( NAMED_UNIT ( * ) SI_UNIT ( $, .STERADIAN. ) SOLID_ANGLE_UNIT ( ) );
#34 = EDGE_CURVE ( 'NONE', #152, #80, #166, .T. ) ;
#35 = CARTESIAN_POINT ( 'NONE',  ( 17.99000000000000199, 0.000000000000000000, 0.6250000000000000000 ) ) ;
#36 = CARTESIAN_POINT ( 'NONE',  ( -18.00000000000000000, 0.000000000000000000, -0.6149999999999954392 ) ) ;
#37 = ORIENTED_EDGE ( 'NONE', *, *, #78, .T. ) ;
#38 = PERSON_AND_ORGANIZATION ( #231, #251 ) ;
#39 = LOCAL_TIME ( 8, 31, 43.00000000000000000, #131 ) ;
#40 = ORIENTED_EDGE ( 'NONE', *, *, #3, .F. ) ;
#41 = PERSON_AND_ORGANIZATION_ROLE ( 'creator' ) ;
#42 = VECTOR ( 'NONE', #48, 39.37007874015748854 ) ;
#43 = ORIENTED_EDGE ( 'NONE', *, *, #34, .F. ) ;
#44 = CC_DESIGN_PERSON_AND_ORGANIZATION_ASSIGNMENT ( #38, #216, ( #84 ) ) ;
#45 = ORIENTED_EDGE ( 'NONE', *, *, #144, .T. ) ;
#46 = DIRECTION ( 'NONE',  ( 1.000000000000000000, 0.000000000000000000, 0.000000000000000000 ) ) ;
#47 = CONICAL_SURFACE ( 'NONE', #54, 0.6150000000000042100, 0.7853981633973936560 ) ;
#48 = DIRECTION ( 'NONE',  ( -0.7071067811865860975, 0.000000000000000000, 0.7071067811865088260 ) ) ;
#49 = UNCERTAINTY_MEASURE_WITH_UNIT (LENGTH_MEASURE( 1.000000000000000082E-05 ), #32, 'distance_accuracy_value', 'NONE');
#50 = DIRECTION ( 'NONE',  ( 0.000000000000000000, 0.000000000000000000, 1.000000000000000000 ) ) ;
#51 = ADVANCED_FACE ( 'NONE', ( #223 ), #47, .T. ) ;
#52 = CARTESIAN_POINT ( 'NONE',  ( 18.00000000000000000, 0.000000000000000000, 0.000000000000000000 ) ) ;
#53 = DIRECTION ( 'NONE',  ( 0.000000000000000000, 0.000000000000000000, 1.000000000000000000 ) ) ;
#54 = AXIS2_PLACEMENT_3D ( 'NONE', #182, #28, #53 ) ;
#55 = FACE_OUTER_BOUND ( 'NONE', #136, .T. ) ;
#56 = VECTOR ( 'NONE', #225, 39.37007874015748143 ) ;
#57 = CARTESIAN_POINT ( 'NONE',  ( -17.98999999999999844, 7.654042494670957853E-17, -0.6250000000000000000 ) ) ;
#58 = APPLICATION_CONTEXT ( 'configuration controlled 3d designs of mechanical parts and assemblies' ) ;
#59 = PRODUCT ( 'NIL20-036.000-SL', 'NIL20-036.000-SL', '', ( #253 ) ) ;
#60 = APPROVAL_PERSON_ORGANIZATION ( #18, #264, #259 ) ;
#61 = AXIS2_PLACEMENT_3D ( 'NONE', #248, #212, #133 ) ;
#62 = EDGE_CURVE ( 'NONE', #159, #184, #247, .T. ) ;
#63 = AXIS2_PLACEMENT_3D ( 'NONE', #171, #14, #169 ) ;
#64 = CIRCLE ( 'NONE', #168, 0.6149999999999954392 ) ;
#65 = CARTESIAN_POINT ( 'NONE',  ( 18.00000000000000000, 0.000000000000000000, 0.000000000000000000 ) ) ;
#66 = AXIS2_PLACEMENT_3D ( 'NONE', #263, #146, #203 ) ;
#67 = ADVANCED_FACE ( 'NONE', ( #261 ), #167, .T. ) ;
#68 = VERTEX_POINT ( 'NONE', #160 ) ;
#69 = ORIENTED_EDGE ( 'NONE', *, *, #117, .F. ) ;
#70 = ORIENTED_EDGE ( 'NONE', *, *, #34, .T. ) ;
#71 = DIMENSIONAL_EXPONENTS ( 1.000000000000000000, 0.000000000000000000, 0.000000000000000000, 0.000000000000000000, 0.000000000000000000, 0.000000000000000000, 0.000000000000000000 ) ;
#72 = CC_DESIGN_PERSON_AND_ORGANIZATION_ASSIGNMENT ( #22, #20, ( #162 ) ) ;
#73 = DATE_AND_TIME ( #278, #269 ) ;
#74 = EDGE_LOOP ( 'NONE', ( #238, #115, #37, #176 ) ) ;
#75 = CIRCLE ( 'NONE', #142, 0.6250000000000000000 ) ;
#76 = ORIENTED_EDGE ( 'NONE', *, *, #117, .T. ) ;
#77 = CARTESIAN_POINT ( 'NONE',  ( 18.00000000000000000, 0.000000000000000000, 0.000000000000000000 ) ) ;
#78 = EDGE_CURVE ( 'NONE', #68, #159, #29, .T. ) ;
#79 = DIRECTION ( 'NONE',  ( 1.000000000000000000, -0.000000000000000000, -0.000000000000000000 ) ) ;
#80 = VERTEX_POINT ( 'NONE', #12 ) ;
#81 = ORIENTED_EDGE ( 'NONE', *, *, #195, .T. ) ;
#82 = EDGE_CURVE ( 'NONE', #152, #267, #15, .T. ) ;
#83 = DIRECTION ( 'NONE',  ( 1.000000000000000000, -0.000000000000000000, -0.000000000000000000 ) ) ;
#84 = PRODUCT_DEFINITION_FORMATION_WITH_SPECIFIED_SOURCE ( 'ANY', '', #59, .NOT_KNOWN. ) ;
#85 = DESIGN_CONTEXT ( 'detailed design', #134, 'design' ) ;
#86 = CARTESIAN_POINT ( 'NONE',  ( -17.98999999999999844, 0.000000000000000000, -0.6250000000000000000 ) ) ;
#87 = EDGE_CURVE ( 'NONE', #267, #152, #64, .T. ) ;
#88 = DIRECTION ( 'NONE',  ( 0.000000000000000000, 0.000000000000000000, -1.000000000000000000 ) ) ;
#89 = APPROVAL_DATE_TIME ( #193, #264 ) ;
#90 = ORIENTED_EDGE ( 'NONE', *, *, #92, .T. ) ;
#91 = PERSON_AND_ORGANIZATION ( #231, #251 ) ;
#92 = EDGE_CURVE ( 'NONE', #68, #132, #126, .T. ) ;
#93 = EDGE_LOOP ( 'NONE', ( #138, #45, #153, #201 ) ) ;
#94 = ORIENTED_EDGE ( 'NONE', *, *, #195, .F. ) ;
#95 = CARTESIAN_POINT ( 'NONE',  ( -17.98999999999999844, 7.654042494670957853E-17, 0.6250000000000000000 ) ) ;
#96 = DIRECTION ( 'NONE',  ( 0.000000000000000000, 0.000000000000000000, 1.000000000000000000 ) ) ;
#97 = DIRECTION ( 'NONE',  ( -1.000000000000000000, -0.000000000000000000, -0.000000000000000000 ) ) ;
#98 = CARTESIAN_POINT ( 'NONE',  ( 18.00000000000000000, 7.531577814756274572E-17, -0.6150000000000042100 ) ) ;
#99 = CC_DESIGN_PERSON_AND_ORGANIZATION_ASSIGNMENT ( #197, #41, ( #84 ) ) ;
#100 = APPROVAL_PERSON_ORGANIZATION ( #91, #200, #21 ) ;
#101 = CARTESIAN_POINT ( 'NONE',  ( -18.00000000000000000, 0.000000000000000000, 0.000000000000000000 ) ) ;
#102 = DIRECTION ( 'NONE',  ( 1.000000000000000000, -0.000000000000000000, -0.000000000000000000 ) ) ;
#103 = ADVANCED_FACE ( 'NONE', ( #25 ), #265, .T. ) ;
#104 = CARTESIAN_POINT ( 'NONE',  ( -17.98999999999999844, 0.000000000000000000, 0.000000000000000000 ) ) ;
#105 = CARTESIAN_POINT ( 'NONE',  ( 17.99000000000000199, 7.654042494670957853E-17, -0.6250000000000000000 ) ) ;
#106 = SECURITY_CLASSIFICATION_LEVEL ( 'unclassified' ) ;
#107 = COORDINATED_UNIVERSAL_TIME_OFFSET ( 5, 0, .BEHIND. ) ;
#108 = ORIENTED_EDGE ( 'NONE', *, *, #262, .F. ) ;
#109 = LOCAL_TIME ( 8, 31, 43.00000000000000000, #277 ) ;
#110 = APPLICATION_PROTOCOL_DEFINITION ( 'international standard', 'config_control_design', 1994, #134 ) ;
#111 = CIRCLE ( 'NONE', #24, 0.6250000000000000000 ) ;
#112 = PERSON_AND_ORGANIZATION_ROLE ( 'classification_officer' ) ;
#113 = EDGE_LOOP ( 'NONE', ( #69, #239, #232, #81 ) ) ;
#114 = PRODUCT_RELATED_PRODUCT_CATEGORY ( 'detail', '', ( #59 ) ) ;
#115 = ORIENTED_EDGE ( 'NONE', *, *, #92, .F. ) ;
#116 = CARTESIAN_POINT ( 'NONE',  ( 18.00000000000000000, 0.000000000000000000, 0.000000000000000000 ) ) ;
#117 = EDGE_CURVE ( 'NONE', #184, #157, #27, .T. ) ;
#118 = CARTESIAN_POINT ( 'NONE',  ( 18.00000000000000000, 7.654042494670957853E-17, -0.6250000000000000000 ) ) ;
#119 = AXIS2_PLACEMENT_3D ( 'NONE', #9, #46, #222 ) ;
#120 = DIRECTION ( 'NONE',  ( 0.000000000000000000, 0.000000000000000000, -1.000000000000000000 ) ) ;
#121 = ORIENTED_EDGE ( 'NONE', *, *, #82, .F. ) ;
#122 = CARTESIAN_POINT ( 'NONE',  ( -17.98999999999999844, 0.000000000000000000, 0.000000000000000000 ) ) ;
#123 = SECURITY_CLASSIFICATION ( '', '', #106 ) ;
#124 = CARTESIAN_POINT ( 'NONE',  ( -18.00000000000000000, 7.592810154713561979E-17, 0.6149999999999954392 ) ) ;
#125 = APPLICATION_PROTOCOL_DEFINITION ( 'international standard', 'config_control_design', 1994, #58 ) ;
#126 = CIRCLE ( 'NONE', #30, 0.6150000000000042100 ) ;
#127 = CYLINDRICAL_SURFACE ( 'NONE', #276, 0.6250000000000000000 ) ;
#128 = CC_DESIGN_APPROVAL ( #200, ( #84 ) ) ;
#129 = DATE_TIME_ROLE ( 'creation_date' ) ;
#130 = EDGE_CURVE ( 'NONE', #159, #80, #205, .T. ) ;
#131 = COORDINATED_UNIVERSAL_TIME_OFFSET ( 5, 0, .BEHIND. ) ;
#132 = VERTEX_POINT ( 'NONE', #206 ) ;
#133 = DIRECTION ( 'NONE',  ( 1.000000000000000000, 0.000000000000000000, 0.000000000000000000 ) ) ;
#134 = APPLICATION_CONTEXT ( 'configuration controlled 3d designs of mechanical parts and assemblies' ) ;
#135 = APPROVAL_DATE_TIME ( #218, #200 ) ;
#136 = EDGE_LOOP ( 'NONE', ( #121, #70, #40, #108 ) ) ;
#137 = CALENDAR_DATE ( 2023, 7, 6 ) ;
#138 = ORIENTED_EDGE ( 'NONE', *, *, #26, .F. ) ;
#139 = AXIS2_PLACEMENT_3D ( 'NONE', #209, #102, #229 ) ;
#140 = CARTESIAN_POINT ( 'NONE',  ( 18.00000000000000000, 0.000000000000000000, 0.6150000000000042100 ) ) ;
#141 = CARTESIAN_POINT ( 'NONE',  ( -18.00000000000000000, 0.000000000000000000, 0.000000000000000000 ) ) ;
#142 = AXIS2_PLACEMENT_3D ( 'NONE', #104, #83, #88 ) ;
#143 = DIRECTION ( 'NONE',  ( 0.000000000000000000, 0.000000000000000000, -1.000000000000000000 ) ) ;
#144 = EDGE_CURVE ( 'NONE', #132, #184, #13, .T. ) ;
#145 = CARTESIAN_POINT ( 'NONE',  ( 18.00000000000000000, 0.000000000000000000, 0.6250000000000000000 ) ) ;
#146 = DIRECTION ( 'NONE',  ( -1.000000000000000000, 0.000000000000000000, 0.000000000000000000 ) ) ;
#147 = LINE ( 'NONE', #86, #246 ) ;
#148 = AXIS2_PLACEMENT_3D ( 'NONE', #101, #191, #31 ) ;
#149 = ADVANCED_FACE ( 'NONE', ( #273 ), #230, .F. ) ;
#150 = DIRECTION ( 'NONE',  ( -1.000000000000000000, -0.000000000000000000, -0.000000000000000000 ) ) ;
#151 = DATE_AND_TIME ( #219, #183 ) ;
#152 = VERTEX_POINT ( 'NONE', #124 ) ;
#153 = ORIENTED_EDGE ( 'NONE', *, *, #62, .F. ) ;
#154 = EDGE_LOOP ( 'NONE', ( #43, #220, #255, #94 ) ) ;
#155 = ADVANCED_FACE ( 'NONE', ( #271 ), #210, .T. ) ;
#156 = DATE_AND_TIME ( #158, #214 ) ;
#157 = VERTEX_POINT ( 'NONE', #57 ) ;
#158 = CALENDAR_DATE ( 2023, 7, 6 ) ;
#159 = VERTEX_POINT ( 'NONE', #35 ) ;
#160 = CARTESIAN_POINT ( 'NONE',  ( 18.00000000000000000, 0.000000000000000000, 0.6150000000000042100 ) ) ;
#161 = DIRECTION ( 'NONE',  ( -1.000000000000000000, -0.000000000000000000, -0.000000000000000000 ) ) ;
#162 = PRODUCT_DEFINITION ( 'UNKNOWN', '', #84, #85 ) ;
#163 = ADVANCED_BREP_SHAPE_REPRESENTATION ( 'NIL20-036.000-SL', ( #221, #61 ), #8 ) ;
#164 = EDGE_LOOP ( 'NONE', ( #90, #187 ) ) ;
#165 = CC_DESIGN_DATE_AND_TIME_ASSIGNMENT ( #151, #215, ( #123 ) ) ;
#166 = LINE ( 'NONE', #95, #254 ) ;
#167 = CONICAL_SURFACE ( 'NONE', #233, 0.6150000000000042100, 0.7853981633973936560 ) ;
#168 = AXIS2_PLACEMENT_3D ( 'NONE', #23, #243, #120 ) ;
#169 = DIRECTION ( 'NONE',  ( 0.000000000000000000, 0.000000000000000000, -1.000000000000000000 ) ) ;
#170 = AXIS2_PLACEMENT_3D ( 'NONE', #181, #79, #143 ) ;
#171 = CARTESIAN_POINT ( 'NONE',  ( 18.00000000000000000, 0.000000000000000000, 0.000000000000000000 ) ) ;
#172 = ADVANCED_FACE ( 'NONE', ( #55 ), #228, .T. ) ;
#173 = SHAPE_DEFINITION_REPRESENTATION ( #16, #163 ) ;
#174 = COORDINATED_UNIVERSAL_TIME_OFFSET ( 5, 0, .BEHIND. ) ;
#175 = APPROVAL_STATUS ( 'not_yet_approved' ) ;
#176 = ORIENTED_EDGE ( 'NONE', *, *, #207, .F. ) ;
#177 = PERSON_AND_ORGANIZATION ( #231, #251 ) ;
#178 = EDGE_LOOP ( 'NONE', ( #19, #242 ) ) ;
#179 = APPROVAL_PERSON_ORGANIZATION ( #177, #211, #5 ) ;
#180 = ADVANCED_FACE ( 'NONE', ( #189 ), #127, .T. ) ;
#181 = CARTESIAN_POINT ( 'NONE',  ( -17.98999999999999844, 0.000000000000000000, 0.000000000000000000 ) ) ;
#182 = CARTESIAN_POINT ( 'NONE',  ( 18.00000000000000000, 0.000000000000000000, 0.000000000000000000 ) ) ;
#183 = LOCAL_TIME ( 8, 31, 43.00000000000000000, #196 ) ;
#184 = VERTEX_POINT ( 'NONE', #105 ) ;
#185 = CLOSED_SHELL ( 'NONE', ( #172, #67, #103, #180, #217, #149, #51, #155 ) ) ;
#186 = DIRECTION ( 'NONE',  ( -1.000000000000000000, -0.000000000000000000, -0.000000000000000000 ) ) ;
#187 = ORIENTED_EDGE ( 'NONE', *, *, #26, .T. ) ;
#188 = DIRECTION ( 'NONE',  ( -1.000000000000000000, 0.000000000000000000, 0.000000000000000000 ) ) ;
#189 = FACE_OUTER_BOUND ( 'NONE', #113, .T. ) ;
#190 = CARTESIAN_POINT ( 'NONE',  ( 17.99000000000000199, 0.000000000000000000, 0.000000000000000000 ) ) ;
#191 = DIRECTION ( 'NONE',  ( 1.000000000000000000, 0.000000000000000000, 0.000000000000000000 ) ) ;
#192 = DIRECTION ( 'NONE',  ( 0.000000000000000000, 0.000000000000000000, -1.000000000000000000 ) ) ;
#193 = DATE_AND_TIME ( #137, #39 ) ;
#194 = CC_DESIGN_SECURITY_CLASSIFICATION ( #123, ( #84 ) ) ;
#195 = EDGE_CURVE ( 'NONE', #80, #157, #75, .T. ) ;
#196 = COORDINATED_UNIVERSAL_TIME_OFFSET ( 5, 0, .BEHIND. ) ;
#197 = PERSON_AND_ORGANIZATION ( #231, #251 ) ;
#198 = ORIENTED_EDGE ( 'NONE', *, *, #3, .T. ) ;
#199 = PERSON_AND_ORGANIZATION ( #231, #251 ) ;
#200 = APPROVAL ( #234, 'UNSPECIFIED' ) ;
#201 = ORIENTED_EDGE ( 'NONE', *, *, #78, .F. ) ;
#202 = CIRCLE ( 'NONE', #119, 0.6150000000000042100 ) ;
#203 = DIRECTION ( 'NONE',  ( 0.000000000000000000, 0.000000000000000000, -1.000000000000000000 ) ) ;
#204 = DIRECTION ( 'NONE',  ( 0.000000000000000000, 0.000000000000000000, -1.000000000000000000 ) ) ;
#205 = LINE ( 'NONE', #145, #56 ) ;
#206 = CARTESIAN_POINT ( 'NONE',  ( 18.00000000000000000, 7.592810154713617445E-17, -0.6150000000000042100 ) ) ;
#207 = EDGE_CURVE ( 'NONE', #184, #159, #111, .T. ) ;
#208 = FACE_OUTER_BOUND ( 'NONE', #164, .T. ) ;
#209 = CARTESIAN_POINT ( 'NONE',  ( -17.98999999999999844, 0.000000000000000000, 0.000000000000000000 ) ) ;
#210 = CONICAL_SURFACE ( 'NONE', #241, 0.6250000000000000000, 0.7853981633975029020 ) ;
#211 = APPROVAL ( #260, 'UNSPECIFIED' ) ;
#212 = DIRECTION ( 'NONE',  ( 0.000000000000000000, 0.000000000000000000, 1.000000000000000000 ) ) ;
#213 = PLANE ( 'NONE',  #63 ) ;
#214 = LOCAL_TIME ( 8, 31, 43.00000000000000000, #107 ) ;
#215 = DATE_TIME_ROLE ( 'classification_date' ) ;
#216 = PERSON_AND_ORGANIZATION_ROLE ( 'design_supplier' ) ;
#217 = ADVANCED_FACE ( 'NONE', ( #208 ), #213, .T. ) ;
#218 = DATE_AND_TIME ( #2, #109 ) ;
#219 = CALENDAR_DATE ( 2023, 7, 6 ) ;
#220 = ORIENTED_EDGE ( 'NONE', *, *, #87, .F. ) ;
#221 = MANIFOLD_SOLID_BREP ( 'Chamfer1', #185 ) ;
#222 = DIRECTION ( 'NONE',  ( 0.000000000000000000, 0.000000000000000000, -1.000000000000000000 ) ) ;
#223 = FACE_OUTER_BOUND ( 'NONE', #74, .T. ) ;
#224 = ORIENTED_EDGE ( 'NONE', *, *, #130, .F. ) ;
#225 = DIRECTION ( 'NONE',  ( -1.000000000000000000, -0.000000000000000000, -0.000000000000000000 ) ) ;
#226 = DIRECTION ( 'NONE',  ( -1.000000000000000000, 0.000000000000000000, 0.000000000000000000 ) ) ;
#227 = DIRECTION ( 'NONE',  ( 1.000000000000000000, -0.000000000000000000, -0.000000000000000000 ) ) ;
#228 = CONICAL_SURFACE ( 'NONE', #139, 0.6250000000000000000, 0.7853981633975029020 ) ;
#229 = DIRECTION ( 'NONE',  ( 0.000000000000000000, 0.000000000000000000, -1.000000000000000000 ) ) ;
#230 = PLANE ( 'NONE',  #148 ) ;
#231 = PERSON ( 'UNSPECIFIED', 'UNSPECIFIED', 'UNSPECIFIED', ('UNSPECIFIED'), ('UNSPECIFIED'), ('UNSPECIFIED') ) ;
#232 = ORIENTED_EDGE ( 'NONE', *, *, #130, .T. ) ;
#233 = AXIS2_PLACEMENT_3D ( 'NONE', #77, #226, #96 ) ;
#234 = APPROVAL_STATUS ( 'not_yet_approved' ) ;
#235 = APPROVAL_DATE_TIME ( #156, #211 ) ;
#236 = PERSON_AND_ORGANIZATION_ROLE ( 'design_owner' ) ;
#237 = VECTOR ( 'NONE', #250, 39.37007874015748854 ) ;
#238 = ORIENTED_EDGE ( 'NONE', *, *, #144, .F. ) ;
#239 = ORIENTED_EDGE ( 'NONE', *, *, #207, .T. ) ;
#240 = AXIS2_PLACEMENT_3D ( 'NONE', #141, #186, #204 ) ;
#241 = AXIS2_PLACEMENT_3D ( 'NONE', #122, #227, #252 ) ;
#242 = ORIENTED_EDGE ( 'NONE', *, *, #82, .T. ) ;
#243 = DIRECTION ( 'NONE',  ( -1.000000000000000000, -0.000000000000000000, -0.000000000000000000 ) ) ;
#244 = DIRECTION ( 'NONE',  ( 0.7071067811865088260, 8.659560562355404942E-17, 0.7071067811865860975 ) ) ;
#245 = CC_DESIGN_APPROVAL ( #211, ( #162 ) ) ;
#246 = VECTOR ( 'NONE', #270, 39.37007874015748854 ) ;
#247 = CIRCLE ( 'NONE', #66, 0.6250000000000000000 ) ;
#248 = CARTESIAN_POINT ( 'NONE',  ( 0.000000000000000000, 0.000000000000000000, 0.000000000000000000 ) ) ;
#249 =( NAMED_UNIT ( * ) PLANE_ANGLE_UNIT ( ) SI_UNIT ( $, .RADIAN. ) );
#250 = DIRECTION ( 'NONE',  ( -0.7071067811865860975, 8.659560562354459542E-17, -0.7071067811865088260 ) ) ;
#251 = ORGANIZATION ( 'UNSPECIFIED', 'UNSPECIFIED', '' ) ;
#252 = DIRECTION ( 'NONE',  ( 0.000000000000000000, 0.000000000000000000, -1.000000000000000000 ) ) ;
#253 = MECHANICAL_CONTEXT ( 'NONE', #58, 'mechanical' ) ;
#254 = VECTOR ( 'NONE', #244, 39.37007874015748854 ) ;
#255 = ORIENTED_EDGE ( 'NONE', *, *, #262, .T. ) ;
#256 = CC_DESIGN_PERSON_AND_ORGANIZATION_ASSIGNMENT ( #199, #236, ( #59 ) ) ;
#257 = EDGE_LOOP ( 'NONE', ( #7, #76, #198, #224 ) ) ;
#258 = VECTOR ( 'NONE', #97, 39.37007874015748143 ) ;
#259 = APPROVAL_ROLE ( '' ) ;
#260 = APPROVAL_STATUS ( 'not_yet_approved' ) ;
#261 = FACE_OUTER_BOUND ( 'NONE', #93, .T. ) ;
#262 = EDGE_CURVE ( 'NONE', #267, #157, #147, .T. ) ;
#263 = CARTESIAN_POINT ( 'NONE',  ( 17.99000000000000199, 0.000000000000000000, 0.000000000000000000 ) ) ;
#264 = APPROVAL ( #175, 'UNSPECIFIED' ) ;
#265 = CYLINDRICAL_SURFACE ( 'NONE', #4, 0.6250000000000000000 ) ;
#266 = DIRECTION ( 'NONE',  ( 0.000000000000000000, 0.000000000000000000, -1.000000000000000000 ) ) ;
#267 = VERTEX_POINT ( 'NONE', #36 ) ;
#268 =( LENGTH_UNIT ( ) NAMED_UNIT ( * ) SI_UNIT ( $, .METRE. ) );
#269 = LOCAL_TIME ( 8, 31, 43.00000000000000000, #174 ) ;
#270 = DIRECTION ( 'NONE',  ( 0.7071067811865088260, 0.000000000000000000, -0.7071067811865860975 ) ) ;
#271 = FACE_OUTER_BOUND ( 'NONE', #154, .T. ) ;
#272 = CC_DESIGN_APPROVAL ( #264, ( #123 ) ) ;
#273 = FACE_OUTER_BOUND ( 'NONE', #178, .T. ) ;
#274 = LENGTH_MEASURE_WITH_UNIT ( LENGTH_MEASURE( 0.02539999999999999897 ), #268 );
#275 = CC_DESIGN_PERSON_AND_ORGANIZATION_ASSIGNMENT ( #1, #112, ( #123 ) ) ;
#276 = AXIS2_PLACEMENT_3D ( 'NONE', #65, #150, #17 ) ;
#277 = COORDINATED_UNIVERSAL_TIME_OFFSET ( 5, 0, .BEHIND. ) ;
#278 = CALENDAR_DATE ( 2023, 7, 6 ) ;
ENDSEC;
END-ISO-10303-21;
