ISO-10303-21;
HEADER;
FILE_DESCRIPTION (( 'STEP AP203' ),
    '1' );
FILE_NAME ('NIL20-024.000-SL.step',
    '2023-06-07T12:31:38',
    ( '' ),
    ( '' ),
    'SwSTEP 2.0',
    'SolidWorks 2021',
    '' );
FILE_SCHEMA (( 'CONFIG_CONTROL_DESIGN' ));
ENDSEC;

DATA;
#1 = DATE_AND_TIME ( #232, #132 ) ;
#2 = CIRCLE ( 'NONE', #140, 0.6250000000000000000 ) ;
#3 = APPROVAL_STATUS ( 'not_yet_approved' ) ;
#4 = ORIENTED_EDGE ( 'NONE', *, *, #156, .F. ) ;
#5 = EDGE_LOOP ( 'NONE', ( #169, #146, #218, #74 ) ) ;
#6 = ORIENTED_EDGE ( 'NONE', *, *, #70, .T. ) ;
#7 = PRODUCT_DEFINITION_FORMATION_WITH_SPECIFIED_SOURCE ( 'ANY', '', #15, .NOT_KNOWN. ) ;
#8 = CARTESIAN_POINT ( 'NONE',  ( 12.00000000000000178, 7.531577814756327574E-17, -0.6150000000000086509 ) ) ;
#9 = APPROVAL_DATE_TIME ( #234, #10 ) ;
#10 = APPROVAL ( #275, 'UNSPECIFIED' ) ;
#11 = PLANE ( 'NONE',  #31 ) ;
#12 = CARTESIAN_POINT ( 'NONE',  ( -11.98999999999997534, 7.654042494670957853E-17, 0.6250000000000000000 ) ) ;
#13 = DIRECTION ( 'NONE',  ( 0.000000000000000000, 0.000000000000000000, 1.000000000000000000 ) ) ;
#14 = CARTESIAN_POINT ( 'NONE',  ( 11.99000000000001087, 0.000000000000000000, 0.000000000000000000 ) ) ;
#15 = PRODUCT ( 'NIL20-024.000-SL', 'NIL20-024.000-SL', '', ( #167 ) ) ;
#16 = DIRECTION ( 'NONE',  ( 0.000000000000000000, 0.000000000000000000, -1.000000000000000000 ) ) ;
#17 = CARTESIAN_POINT ( 'NONE',  ( 12.00000000000000178, 0.000000000000000000, 0.000000000000000000 ) ) ;
#18 = CONICAL_SURFACE ( 'NONE', #111, 0.6150000000000086509, 0.7853981633975029020 ) ;
#19 = PERSON_AND_ORGANIZATION_ROLE ( 'creator' ) ;
#20 = ADVANCED_FACE ( 'NONE', ( #261 ), #11, .F. ) ;
#21 = CC_DESIGN_DATE_AND_TIME_ASSIGNMENT ( #212, #258, ( #60 ) ) ;
#22 = DATE_AND_TIME ( #148, #199 ) ;
#23 = ORIENTED_EDGE ( 'NONE', *, *, #166, .F. ) ;
#24 = APPLICATION_PROTOCOL_DEFINITION ( 'international standard', 'config_control_design', 1994, #257 ) ;
#25 = COORDINATED_UNIVERSAL_TIME_OFFSET ( 5, 0, .BEHIND. ) ;
#26 = VERTEX_POINT ( 'NONE', #72 ) ;
#27 = ORIENTED_EDGE ( 'NONE', *, *, #59, .T. ) ;
#28 = EDGE_LOOP ( 'NONE', ( #153, #168, #213, #202 ) ) ;
#29 = EDGE_CURVE ( 'NONE', #173, #134, #165, .T. ) ;
#30 = VERTEX_POINT ( 'NONE', #75 ) ;
#31 = AXIS2_PLACEMENT_3D ( 'NONE', #158, #181, #224 ) ;
#32 = LINE ( 'NONE', #12, #86 ) ;
#33 = DIRECTION ( 'NONE',  ( -0.7071067811865088260, 8.659560562355404942E-17, -0.7071067811865860975 ) ) ;
#34 = LINE ( 'NONE', #38, #237 ) ;
#35 =( NAMED_UNIT ( * ) SI_UNIT ( $, .STERADIAN. ) SOLID_ANGLE_UNIT ( ) );
#36 = CC_DESIGN_DATE_AND_TIME_ASSIGNMENT ( #22, #64, ( #54 ) ) ;
#37 = DIRECTION ( 'NONE',  ( -1.000000000000000000, -0.000000000000000000, -0.000000000000000000 ) ) ;
#38 = CARTESIAN_POINT ( 'NONE',  ( 12.00000000000000178, 0.000000000000000000, 0.6150000000000086509 ) ) ;
#39 = PERSON_AND_ORGANIZATION ( #49, #265 ) ;
#40 = CONICAL_SURFACE ( 'NONE', #122, 0.6250000000000000000, 0.7853981633974005394 ) ;
#41 = APPROVAL_PERSON_ORGANIZATION ( #256, #47, #129 ) ;
#42 = PERSON_AND_ORGANIZATION_ROLE ( 'design_supplier' ) ;
#43 = EDGE_LOOP ( 'NONE', ( #53, #233 ) ) ;
#44 = EDGE_CURVE ( 'NONE', #134, #173, #2, .T. ) ;
#45 = APPROVAL_ROLE ( '' ) ;
#46 = ORIENTED_EDGE ( 'NONE', *, *, #50, .T. ) ;
#47 = APPROVAL ( #3, 'UNSPECIFIED' ) ;
#48 = EDGE_LOOP ( 'NONE', ( #133, #6 ) ) ;
#49 = PERSON ( 'UNSPECIFIED', 'UNSPECIFIED', 'UNSPECIFIED', ('UNSPECIFIED'), ('UNSPECIFIED'), ('UNSPECIFIED') ) ;
#50 = EDGE_CURVE ( 'NONE', #254, #134, #264, .T. ) ;
#51 = CARTESIAN_POINT ( 'NONE',  ( 12.00000000000000178, 0.000000000000000000, 0.6250000000000000000 ) ) ;
#52 = PERSON_AND_ORGANIZATION ( #49, #265 ) ;
#53 = ORIENTED_EDGE ( 'NONE', *, *, #219, .T. ) ;
#54 = SECURITY_CLASSIFICATION ( '', '', #92 ) ;
#55 = DIRECTION ( 'NONE',  ( -1.000000000000000000, 0.000000000000000000, 0.000000000000000000 ) ) ;
#56 = FACE_OUTER_BOUND ( 'NONE', #131, .T. ) ;
#57 =( NAMED_UNIT ( * ) PLANE_ANGLE_UNIT ( ) SI_UNIT ( $, .RADIAN. ) );
#58 = AXIS2_PLACEMENT_3D ( 'NONE', #187, #205, #82 ) ;
#59 = EDGE_CURVE ( 'NONE', #253, #254, #270, .T. ) ;
#60 = PRODUCT_DEFINITION ( 'UNKNOWN', '', #7, #220 ) ;
#61 = DIRECTION ( 'NONE',  ( 0.000000000000000000, 0.000000000000000000, -1.000000000000000000 ) ) ;
#62 = CONICAL_SURFACE ( 'NONE', #58, 0.6250000000000000000, 0.7853981633974005394 ) ;
#63 = DIRECTION ( 'NONE',  ( 0.000000000000000000, 0.000000000000000000, 1.000000000000000000 ) ) ;
#64 = DATE_TIME_ROLE ( 'classification_date' ) ;
#65 = ORIENTED_EDGE ( 'NONE', *, *, #151, .F. ) ;
#66 = DIRECTION ( 'NONE',  ( 1.000000000000000000, 0.000000000000000000, 0.000000000000000000 ) ) ;
#67 = EDGE_LOOP ( 'NONE', ( #23, #276, #259, #65 ) ) ;
#68 = CC_DESIGN_PERSON_AND_ORGANIZATION_ASSIGNMENT ( #191, #149, ( #7 ) ) ;
#69 = DIMENSIONAL_EXPONENTS ( 1.000000000000000000, 0.000000000000000000, 0.000000000000000000, 0.000000000000000000, 0.000000000000000000, 0.000000000000000000, 0.000000000000000000 ) ;
#70 = EDGE_CURVE ( 'NONE', #30, #175, #188, .T. ) ;
#71 = PRODUCT_RELATED_PRODUCT_CATEGORY ( 'detail', '', ( #15 ) ) ;
#72 = CARTESIAN_POINT ( 'NONE',  ( -12.00000000000000178, 7.592810154713441184E-17, 0.6149999999999756772 ) ) ;
#73 = DATE_AND_TIME ( #193, #255 ) ;
#74 = ORIENTED_EDGE ( 'NONE', *, *, #44, .F. ) ;
#75 = CARTESIAN_POINT ( 'NONE',  ( 12.00000000000000178, 7.592810154713642097E-17, -0.6150000000000086509 ) ) ;
#76 = DIRECTION ( 'NONE',  ( 1.000000000000000000, -0.000000000000000000, -0.000000000000000000 ) ) ;
#77 = CARTESIAN_POINT ( 'NONE',  ( 12.00000000000000178, 0.000000000000000000, 0.000000000000000000 ) ) ;
#78 = VECTOR ( 'NONE', #223, 39.37007874015748143 ) ;
#79 = DIRECTION ( 'NONE',  ( 0.000000000000000000, 0.000000000000000000, -1.000000000000000000 ) ) ;
#80 = CARTESIAN_POINT ( 'NONE',  ( 12.00000000000000178, 0.000000000000000000, 0.000000000000000000 ) ) ;
#81 = CARTESIAN_POINT ( 'NONE',  ( 12.00000000000000178, 0.000000000000000000, 0.6150000000000086509 ) ) ;
#82 = DIRECTION ( 'NONE',  ( 0.000000000000000000, 0.000000000000000000, -1.000000000000000000 ) ) ;
#83 = CYLINDRICAL_SURFACE ( 'NONE', #197, 0.6250000000000000000 ) ;
#84 = COORDINATED_UNIVERSAL_TIME_OFFSET ( 5, 0, .BEHIND. ) ;
#85 = VERTEX_POINT ( 'NONE', #225 ) ;
#86 = VECTOR ( 'NONE', #244, 39.37007874015748854 ) ;
#87 = ORIENTED_EDGE ( 'NONE', *, *, #221, .T. ) ;
#88 = AXIS2_PLACEMENT_3D ( 'NONE', #77, #137, #226 ) ;
#89 = CALENDAR_DATE ( 2023, 7, 6 ) ;
#90 = DIRECTION ( 'NONE',  ( 1.000000000000000000, -0.000000000000000000, -0.000000000000000000 ) ) ;
#91 = CYLINDRICAL_SURFACE ( 'NONE', #88, 0.6250000000000000000 ) ;
#92 = SECURITY_CLASSIFICATION_LEVEL ( 'unclassified' ) ;
#93 = CIRCLE ( 'NONE', #250, 0.6250000000000000000 ) ;
#94 = ORIENTED_EDGE ( 'NONE', *, *, #221, .F. ) ;
#95 = LENGTH_MEASURE_WITH_UNIT ( LENGTH_MEASURE( 0.02539999999999999897 ), #251 );
#96 = CC_DESIGN_PERSON_AND_ORGANIZATION_ASSIGNMENT ( #230, #194, ( #15 ) ) ;
#97 = DIRECTION ( 'NONE',  ( 1.000000000000000000, 0.000000000000000000, 0.000000000000000000 ) ) ;
#98 = DIRECTION ( 'NONE',  ( -1.000000000000000000, 0.000000000000000000, 0.000000000000000000 ) ) ;
#99 = EDGE_CURVE ( 'NONE', #30, #253, #200, .T. ) ;
#100 = PLANE ( 'NONE',  #271 ) ;
#101 = DIRECTION ( 'NONE',  ( 0.000000000000000000, 0.000000000000000000, -1.000000000000000000 ) ) ;
#102 = CALENDAR_DATE ( 2023, 7, 6 ) ;
#103 = APPROVAL_ROLE ( '' ) ;
#104 = ORIENTED_EDGE ( 'NONE', *, *, #44, .T. ) ;
#105 = EDGE_CURVE ( 'NONE', #26, #134, #32, .T. ) ;
#106 = APPROVAL ( #171, 'UNSPECIFIED' ) ;
#107 = COORDINATED_UNIVERSAL_TIME_OFFSET ( 5, 0, .BEHIND. ) ;
#108 = COORDINATED_UNIVERSAL_TIME_OFFSET ( 5, 0, .BEHIND. ) ;
#109 = LINE ( 'NONE', #198, #147 ) ;
#110 = AXIS2_PLACEMENT_3D ( 'NONE', #17, #97, #61 ) ;
#111 = AXIS2_PLACEMENT_3D ( 'NONE', #177, #204, #13 ) ;
#112 = DIRECTION ( 'NONE',  ( 1.000000000000000000, 0.000000000000000000, 0.000000000000000000 ) ) ;
#113 = ORIENTED_EDGE ( 'NONE', *, *, #70, .F. ) ;
#114 = CARTESIAN_POINT ( 'NONE',  ( -11.98999999999997534, 0.000000000000000000, 0.000000000000000000 ) ) ;
#115 = AXIS2_PLACEMENT_3D ( 'NONE', #269, #249, #211 ) ;
#116 = FACE_OUTER_BOUND ( 'NONE', #155, .T. ) ;
#117 = APPROVAL_PERSON_ORGANIZATION ( #235, #10, #45 ) ;
#118 = AXIS2_PLACEMENT_3D ( 'NONE', #114, #76, #179 ) ;
#119 = ADVANCED_FACE ( 'NONE', ( #56 ), #91, .T. ) ;
#120 = FACE_OUTER_BOUND ( 'NONE', #5, .T. ) ;
#121 = CARTESIAN_POINT ( 'NONE',  ( 11.99000000000001087, 0.000000000000000000, 0.6250000000000000000 ) ) ;
#122 = AXIS2_PLACEMENT_3D ( 'NONE', #139, #252, #79 ) ;
#123 = AXIS2_PLACEMENT_3D ( 'NONE', #161, #245, #222 ) ;
#124 = CARTESIAN_POINT ( 'NONE',  ( 11.99000000000001087, 7.654042494670955388E-17, -0.6250000000000000000 ) ) ;
#125 = MANIFOLD_SOLID_BREP ( 'Chamfer1', #150 ) ;
#126 = PERSON_AND_ORGANIZATION_ROLE ( 'classification_officer' ) ;
#127 = ADVANCED_FACE ( 'NONE', ( #116 ), #18, .T. ) ;
#128 = ORIENTED_EDGE ( 'NONE', *, *, #160, .F. ) ;
#129 = APPROVAL_ROLE ( '' ) ;
#130 = ORIENTED_EDGE ( 'NONE', *, *, #156, .T. ) ;
#131 = EDGE_LOOP ( 'NONE', ( #130, #87, #262, #278 ) ) ;
#132 = LOCAL_TIME ( 8, 31, 38.00000000000000000, #25 ) ;
#133 = ORIENTED_EDGE ( 'NONE', *, *, #247, .T. ) ;
#134 = VERTEX_POINT ( 'NONE', #182 ) ;
#135 = APPROVAL_PERSON_ORGANIZATION ( #39, #106, #103 ) ;
#136 = CARTESIAN_POINT ( 'NONE',  ( 12.00000000000000178, 0.000000000000000000, 0.000000000000000000 ) ) ;
#137 = DIRECTION ( 'NONE',  ( -1.000000000000000000, -0.000000000000000000, -0.000000000000000000 ) ) ;
#138 = CARTESIAN_POINT ( 'NONE',  ( 12.00000000000000178, 7.654042494670955388E-17, -0.6250000000000000000 ) ) ;
#139 = CARTESIAN_POINT ( 'NONE',  ( -11.98999999999997534, 0.000000000000000000, 0.000000000000000000 ) ) ;
#140 = AXIS2_PLACEMENT_3D ( 'NONE', #157, #90, #240 ) ;
#141 = ADVANCED_FACE ( 'NONE', ( #266 ), #208, .T. ) ;
#142 = FACE_OUTER_BOUND ( 'NONE', #48, .T. ) ;
#143 = CC_DESIGN_PERSON_AND_ORGANIZATION_ASSIGNMENT ( #52, #42, ( #7 ) ) ;
#144 = DIRECTION ( 'NONE',  ( 0.7071067811865812125, 0.000000000000000000, -0.7071067811865135999 ) ) ;
#145 = PERSON_AND_ORGANIZATION ( #49, #265 ) ;
#146 = ORIENTED_EDGE ( 'NONE', *, *, #219, .F. ) ;
#147 = VECTOR ( 'NONE', #144, 39.37007874015748854 ) ;
#148 = CALENDAR_DATE ( 2023, 7, 6 ) ;
#149 = PERSON_AND_ORGANIZATION_ROLE ( 'creator' ) ;
#150 = CLOSED_SHELL ( 'NONE', ( #170, #127, #119, #190, #267, #20, #141, #277 ) ) ;
#151 = EDGE_CURVE ( 'NONE', #85, #173, #109, .T. ) ;
#152 = AXIS2_PLACEMENT_3D ( 'NONE', #242, #55, #203 ) ;
#153 = ORIENTED_EDGE ( 'NONE', *, *, #99, .F. ) ;
#154 = AXIS2_PLACEMENT_3D ( 'NONE', #227, #210, #16 ) ;
#155 = EDGE_LOOP ( 'NONE', ( #113, #263, #4, #128 ) ) ;
#156 = EDGE_CURVE ( 'NONE', #254, #253, #93, .T. ) ;
#157 = CARTESIAN_POINT ( 'NONE',  ( -11.98999999999997534, 0.000000000000000000, 0.000000000000000000 ) ) ;
#158 = CARTESIAN_POINT ( 'NONE',  ( -12.00000000000000178, 0.000000000000000000, 0.000000000000000000 ) ) ;
#159 = DIRECTION ( 'NONE',  ( 0.000000000000000000, 0.000000000000000000, -1.000000000000000000 ) ) ;
#160 = EDGE_CURVE ( 'NONE', #175, #254, #34, .T. ) ;
#161 = CARTESIAN_POINT ( 'NONE',  ( 12.00000000000000178, 0.000000000000000000, 0.000000000000000000 ) ) ;
#162 = CARTESIAN_POINT ( 'NONE',  ( 12.00000000000000178, 0.000000000000000000, 0.000000000000000000 ) ) ;
#163 = LOCAL_TIME ( 8, 31, 38.00000000000000000, #107 ) ;
#164 = FACE_OUTER_BOUND ( 'NONE', #236, .T. ) ;
#165 = CIRCLE ( 'NONE', #118, 0.6250000000000000000 ) ;
#166 = EDGE_CURVE ( 'NONE', #26, #85, #272, .T. ) ;
#167 = MECHANICAL_CONTEXT ( 'NONE', #196, 'mechanical' ) ;
#168 = ORIENTED_EDGE ( 'NONE', *, *, #247, .F. ) ;
#169 = ORIENTED_EDGE ( 'NONE', *, *, #105, .F. ) ;
#170 = ADVANCED_FACE ( 'NONE', ( #268 ), #40, .T. ) ;
#171 = APPROVAL_STATUS ( 'not_yet_approved' ) ;
#172 = COORDINATED_UNIVERSAL_TIME_OFFSET ( 5, 0, .BEHIND. ) ;
#173 = VERTEX_POINT ( 'NONE', #273 ) ;
#174 = AXIS2_PLACEMENT_3D ( 'NONE', #136, #112, #159 ) ;
#175 = VERTEX_POINT ( 'NONE', #81 ) ;
#176 = CC_DESIGN_SECURITY_CLASSIFICATION ( #54, ( #7 ) ) ;
#177 = CARTESIAN_POINT ( 'NONE',  ( 12.00000000000000178, 0.000000000000000000, 0.000000000000000000 ) ) ;
#178 = SHAPE_DEFINITION_REPRESENTATION ( #214, #239 ) ;
#179 = DIRECTION ( 'NONE',  ( 0.000000000000000000, 0.000000000000000000, -1.000000000000000000 ) ) ;
#180 = CC_DESIGN_APPROVAL ( #47, ( #7 ) ) ;
#181 = DIRECTION ( 'NONE',  ( 1.000000000000000000, 0.000000000000000000, 0.000000000000000000 ) ) ;
#182 = CARTESIAN_POINT ( 'NONE',  ( -11.98999999999997534, 0.000000000000000000, 0.6250000000000000000 ) ) ;
#183 = DIRECTION ( 'NONE',  ( 1.000000000000000000, 0.000000000000000000, 0.000000000000000000 ) ) ;
#184 =( CONVERSION_BASED_UNIT ( 'INCH', #95 ) LENGTH_UNIT ( ) NAMED_UNIT ( #69 ) );
#185 = CC_DESIGN_APPROVAL ( #10, ( #60 ) ) ;
#186 = DIRECTION ( 'NONE',  ( -0.7071067811865088260, 0.000000000000000000, 0.7071067811865860975 ) ) ;
#187 = CARTESIAN_POINT ( 'NONE',  ( -11.98999999999997534, 0.000000000000000000, 0.000000000000000000 ) ) ;
#188 = CIRCLE ( 'NONE', #174, 0.6150000000000086509 ) ;
#189 = DIRECTION ( 'NONE',  ( 0.000000000000000000, 0.000000000000000000, 1.000000000000000000 ) ) ;
#190 = ADVANCED_FACE ( 'NONE', ( #164 ), #83, .T. ) ;
#191 = PERSON_AND_ORGANIZATION ( #49, #265 ) ;
#192 = APPROVAL_DATE_TIME ( #1, #106 ) ;
#193 = CALENDAR_DATE ( 2023, 7, 6 ) ;
#194 = PERSON_AND_ORGANIZATION_ROLE ( 'design_owner' ) ;
#195 = CC_DESIGN_APPROVAL ( #106, ( #54 ) ) ;
#196 = APPLICATION_CONTEXT ( 'configuration controlled 3d designs of mechanical parts and assemblies' ) ;
#197 = AXIS2_PLACEMENT_3D ( 'NONE', #162, #228, #189 ) ;
#198 = CARTESIAN_POINT ( 'NONE',  ( -11.98999999999997534, 0.000000000000000000, -0.6250000000000000000 ) ) ;
#199 = LOCAL_TIME ( 8, 31, 38.00000000000000000, #84 ) ;
#200 = LINE ( 'NONE', #8, #231 ) ;
#201 = CARTESIAN_POINT ( 'NONE',  ( 0.000000000000000000, 0.000000000000000000, 0.000000000000000000 ) ) ;
#202 = ORIENTED_EDGE ( 'NONE', *, *, #59, .F. ) ;
#203 = DIRECTION ( 'NONE',  ( 0.000000000000000000, 0.000000000000000000, -1.000000000000000000 ) ) ;
#204 = DIRECTION ( 'NONE',  ( -1.000000000000000000, 0.000000000000000000, 0.000000000000000000 ) ) ;
#205 = DIRECTION ( 'NONE',  ( 1.000000000000000000, -0.000000000000000000, -0.000000000000000000 ) ) ;
#206 = DIRECTION ( 'NONE',  ( 0.000000000000000000, 0.000000000000000000, -1.000000000000000000 ) ) ;
#207 = CC_DESIGN_PERSON_AND_ORGANIZATION_ASSIGNMENT ( #217, #126, ( #54 ) ) ;
#208 = CONICAL_SURFACE ( 'NONE', #123, 0.6150000000000086509, 0.7853981633975029020 ) ;
#209 = APPLICATION_PROTOCOL_DEFINITION ( 'international standard', 'config_control_design', 1994, #196 ) ;
#210 = DIRECTION ( 'NONE',  ( -1.000000000000000000, -0.000000000000000000, -0.000000000000000000 ) ) ;
#211 = DIRECTION ( 'NONE',  ( 0.000000000000000000, 0.000000000000000000, -1.000000000000000000 ) ) ;
#212 = DATE_AND_TIME ( #102, #274 ) ;
#213 = ORIENTED_EDGE ( 'NONE', *, *, #160, .T. ) ;
#214 = PRODUCT_DEFINITION_SHAPE ( 'NONE', 'NONE',  #60 ) ;
#215 = VECTOR ( 'NONE', #37, 39.37007874015748143 ) ;
#216 = CC_DESIGN_PERSON_AND_ORGANIZATION_ASSIGNMENT ( #145, #19, ( #60 ) ) ;
#217 = PERSON_AND_ORGANIZATION ( #49, #265 ) ;
#218 = ORIENTED_EDGE ( 'NONE', *, *, #151, .T. ) ;
#219 = EDGE_CURVE ( 'NONE', #85, #26, #260, .T. ) ;
#220 = DESIGN_CONTEXT ( 'detailed design', #257, 'design' ) ;
#221 = EDGE_CURVE ( 'NONE', #253, #173, #229, .T. ) ;
#222 = DIRECTION ( 'NONE',  ( 0.000000000000000000, 0.000000000000000000, 1.000000000000000000 ) ) ;
#223 = DIRECTION ( 'NONE',  ( -1.000000000000000000, -0.000000000000000000, -0.000000000000000000 ) ) ;
#224 = DIRECTION ( 'NONE',  ( 0.000000000000000000, 0.000000000000000000, -1.000000000000000000 ) ) ;
#225 = CARTESIAN_POINT ( 'NONE',  ( -12.00000000000000178, 0.000000000000000000, -0.6149999999999756772 ) ) ;
#226 = DIRECTION ( 'NONE',  ( 0.000000000000000000, 0.000000000000000000, 1.000000000000000000 ) ) ;
#227 = CARTESIAN_POINT ( 'NONE',  ( -12.00000000000000178, 0.000000000000000000, 0.000000000000000000 ) ) ;
#228 = DIRECTION ( 'NONE',  ( -1.000000000000000000, -0.000000000000000000, -0.000000000000000000 ) ) ;
#229 = LINE ( 'NONE', #138, #215 ) ;
#230 = PERSON_AND_ORGANIZATION ( #49, #265 ) ;
#231 = VECTOR ( 'NONE', #33, 39.37007874015748854 ) ;
#232 = CALENDAR_DATE ( 2023, 7, 6 ) ;
#233 = ORIENTED_EDGE ( 'NONE', *, *, #166, .T. ) ;
#234 = DATE_AND_TIME ( #89, #163 ) ;
#235 = PERSON_AND_ORGANIZATION ( #49, #265 ) ;
#236 = EDGE_LOOP ( 'NONE', ( #94, #27, #46, #104 ) ) ;
#237 = VECTOR ( 'NONE', #186, 39.37007874015748854 ) ;
#238 = UNCERTAINTY_MEASURE_WITH_UNIT (LENGTH_MEASURE( 1.000000000000000082E-05 ), #184, 'distance_accuracy_value', 'NONE');
#239 = ADVANCED_BREP_SHAPE_REPRESENTATION ( 'NIL20-024.000-SL', ( #125, #243 ), #248 ) ;
#240 = DIRECTION ( 'NONE',  ( 0.000000000000000000, 0.000000000000000000, -1.000000000000000000 ) ) ;
#241 = APPROVAL_DATE_TIME ( #73, #47 ) ;
#242 = CARTESIAN_POINT ( 'NONE',  ( 11.99000000000001087, 0.000000000000000000, 0.000000000000000000 ) ) ;
#243 = AXIS2_PLACEMENT_3D ( 'NONE', #201, #63, #66 ) ;
#244 = DIRECTION ( 'NONE',  ( 0.7071067811865812125, 8.659560562354516241E-17, 0.7071067811865135999 ) ) ;
#245 = DIRECTION ( 'NONE',  ( -1.000000000000000000, 0.000000000000000000, 0.000000000000000000 ) ) ;
#246 = CIRCLE ( 'NONE', #110, 0.6150000000000086509 ) ;
#247 = EDGE_CURVE ( 'NONE', #175, #30, #246, .T. ) ;
#248 =( GEOMETRIC_REPRESENTATION_CONTEXT ( 3 ) GLOBAL_UNCERTAINTY_ASSIGNED_CONTEXT ( ( #238 ) ) GLOBAL_UNIT_ASSIGNED_CONTEXT ( ( #184, #57, #35 ) ) REPRESENTATION_CONTEXT ( 'NONE', 'WORKASPACE' ) );
#249 = DIRECTION ( 'NONE',  ( -1.000000000000000000, -0.000000000000000000, -0.000000000000000000 ) ) ;
#250 = AXIS2_PLACEMENT_3D ( 'NONE', #14, #98, #206 ) ;
#251 =( LENGTH_UNIT ( ) NAMED_UNIT ( * ) SI_UNIT ( $, .METRE. ) );
#252 = DIRECTION ( 'NONE',  ( 1.000000000000000000, -0.000000000000000000, -0.000000000000000000 ) ) ;
#253 = VERTEX_POINT ( 'NONE', #124 ) ;
#254 = VERTEX_POINT ( 'NONE', #121 ) ;
#255 = LOCAL_TIME ( 8, 31, 38.00000000000000000, #172 ) ;
#256 = PERSON_AND_ORGANIZATION ( #49, #265 ) ;
#257 = APPLICATION_CONTEXT ( 'configuration controlled 3d designs of mechanical parts and assemblies' ) ;
#258 = DATE_TIME_ROLE ( 'creation_date' ) ;
#259 = ORIENTED_EDGE ( 'NONE', *, *, #29, .F. ) ;
#260 = CIRCLE ( 'NONE', #115, 0.6149999999999756772 ) ;
#261 = FACE_OUTER_BOUND ( 'NONE', #43, .T. ) ;
#262 = ORIENTED_EDGE ( 'NONE', *, *, #29, .T. ) ;
#263 = ORIENTED_EDGE ( 'NONE', *, *, #99, .T. ) ;
#264 = LINE ( 'NONE', #51, #78 ) ;
#265 = ORGANIZATION ( 'UNSPECIFIED', 'UNSPECIFIED', '' ) ;
#266 = FACE_OUTER_BOUND ( 'NONE', #28, .T. ) ;
#267 = ADVANCED_FACE ( 'NONE', ( #142 ), #100, .T. ) ;
#268 = FACE_OUTER_BOUND ( 'NONE', #67, .T. ) ;
#269 = CARTESIAN_POINT ( 'NONE',  ( -12.00000000000000178, 0.000000000000000000, 0.000000000000000000 ) ) ;
#270 = CIRCLE ( 'NONE', #152, 0.6250000000000000000 ) ;
#271 = AXIS2_PLACEMENT_3D ( 'NONE', #80, #183, #101 ) ;
#272 = CIRCLE ( 'NONE', #154, 0.6149999999999756772 ) ;
#273 = CARTESIAN_POINT ( 'NONE',  ( -11.98999999999997534, 7.654042494670955388E-17, -0.6250000000000000000 ) ) ;
#274 = LOCAL_TIME ( 8, 31, 38.00000000000000000, #108 ) ;
#275 = APPROVAL_STATUS ( 'not_yet_approved' ) ;
#276 = ORIENTED_EDGE ( 'NONE', *, *, #105, .T. ) ;
#277 = ADVANCED_FACE ( 'NONE', ( #120 ), #62, .T. ) ;
#278 = ORIENTED_EDGE ( 'NONE', *, *, #50, .F. ) ;
ENDSEC;
END-ISO-10303-21;
