ISO-10303-21;
HEADER;
FILE_DESCRIPTION (( 'STEP AP203' ),
    '1' );
FILE_NAME ('NIL20-012.000-SL.step',
    '2023-06-07T12:31:33',
    ( '' ),
    ( '' ),
    'SwSTEP 2.0',
    'SolidWorks 2021',
    '' );
FILE_SCHEMA (( 'CONFIG_CONTROL_DESIGN' ));
ENDSEC;

DATA;
#1 = AXIS2_PLACEMENT_3D ( 'NONE', #253, #223, #108 ) ;
#2 = CARTESIAN_POINT ( 'NONE',  ( 6.000000000000000888, 0.000000000000000000, 0.000000000000000000 ) ) ;
#3 = EDGE_CURVE ( 'NONE', #49, #6, #251, .T. ) ;
#4 = EDGE_LOOP ( 'NONE', ( #39, #236 ) ) ;
#5 = DATE_AND_TIME ( #138, #250 ) ;
#6 = VERTEX_POINT ( 'NONE', #37 ) ;
#7 = PERSON_AND_ORGANIZATION_ROLE ( 'design_owner' ) ;
#8 = ORIENTED_EDGE ( 'NONE', *, *, #254, .F. ) ;
#9 = CIRCLE ( 'NONE', #1, 0.6149999999999898881 ) ;
#10 = PLANE ( 'NONE',  #178 ) ;
#11 = DIRECTION ( 'NONE',  ( 0.000000000000000000, 0.000000000000000000, -1.000000000000000000 ) ) ;
#12 = DATE_AND_TIME ( #203, #43 ) ;
#13 = AXIS2_PLACEMENT_3D ( 'NONE', #193, #276, #81 ) ;
#14 = DIRECTION ( 'NONE',  ( 0.000000000000000000, 0.000000000000000000, 1.000000000000000000 ) ) ;
#15 = CARTESIAN_POINT ( 'NONE',  ( 6.000000000000000888, 7.531577814756300457E-17, -0.6150000000000064304 ) ) ;
#16 = PRODUCT ( 'NIL20-012.000-SL', 'NIL20-012.000-SL', '', ( #157 ) ) ;
#17 = DIRECTION ( 'NONE',  ( -1.000000000000000000, -0.000000000000000000, -0.000000000000000000 ) ) ;
#18 =( NAMED_UNIT ( * ) PLANE_ANGLE_UNIT ( ) SI_UNIT ( $, .RADIAN. ) );
#19 = PRODUCT_RELATED_PRODUCT_CATEGORY ( 'detail', '', ( #16 ) ) ;
#20 = DIRECTION ( 'NONE',  ( 0.000000000000000000, 0.000000000000000000, -1.000000000000000000 ) ) ;
#21 = UNCERTAINTY_MEASURE_WITH_UNIT (LENGTH_MEASURE( 1.000000000000000082E-05 ), #46, 'distance_accuracy_value', 'NONE');
#22 = FACE_OUTER_BOUND ( 'NONE', #53, .T. ) ;
#23 =( NAMED_UNIT ( * ) SI_UNIT ( $, .STERADIAN. ) SOLID_ANGLE_UNIT ( ) );
#24 = EDGE_CURVE ( 'NONE', #62, #32, #115, .T. ) ;
#25 = ORIENTED_EDGE ( 'NONE', *, *, #202, .T. ) ;
#26 = PERSON_AND_ORGANIZATION ( #73, #87 ) ;
#27 = ORIENTED_EDGE ( 'NONE', *, *, #94, .T. ) ;
#28 = LOCAL_TIME ( 8, 31, 33.00000000000000000, #52 ) ;
#29 = ADVANCED_FACE ( 'NONE', ( #165 ), #191, .T. ) ;
#30 = ORIENTED_EDGE ( 'NONE', *, *, #148, .T. ) ;
#31 = APPLICATION_PROTOCOL_DEFINITION ( 'international standard', 'config_control_design', 1994, #61 ) ;
#32 = VERTEX_POINT ( 'NONE', #172 ) ;
#33 = COORDINATED_UNIVERSAL_TIME_OFFSET ( 5, 0, .BEHIND. ) ;
#34 = DIRECTION ( 'NONE',  ( 1.000000000000000000, 0.000000000000000000, 0.000000000000000000 ) ) ;
#35 = CC_DESIGN_PERSON_AND_ORGANIZATION_ASSIGNMENT ( #26, #244, ( #92 ) ) ;
#36 = DIRECTION ( 'NONE',  ( 1.000000000000000000, -0.000000000000000000, -0.000000000000000000 ) ) ;
#37 = CARTESIAN_POINT ( 'NONE',  ( -5.989999999999990443, 7.654042494670955388E-17, -0.6250000000000000000 ) ) ;
#38 = APPROVAL_STATUS ( 'not_yet_approved' ) ;
#39 = ORIENTED_EDGE ( 'NONE', *, *, #84, .T. ) ;
#40 = DIRECTION ( 'NONE',  ( -1.000000000000000000, 0.000000000000000000, 0.000000000000000000 ) ) ;
#41 = CC_DESIGN_PERSON_AND_ORGANIZATION_ASSIGNMENT ( #197, #7, ( #16 ) ) ;
#42 = CONICAL_SURFACE ( 'NONE', #85, 0.6250000000000000000, 0.7853981633974551624 ) ;
#43 = LOCAL_TIME ( 8, 31, 33.00000000000000000, #33 ) ;
#44 = LINE ( 'NONE', #150, #265 ) ;
#45 = MANIFOLD_SOLID_BREP ( 'Chamfer1', #124 ) ;
#46 =( CONVERSION_BASED_UNIT ( 'INCH', #155 ) LENGTH_UNIT ( ) NAMED_UNIT ( #112 ) );
#47 = ADVANCED_FACE ( 'NONE', ( #249 ), #256, .T. ) ;
#48 = VECTOR ( 'NONE', #110, 39.37007874015748854 ) ;
#49 = VERTEX_POINT ( 'NONE', #139 ) ;
#50 = DIRECTION ( 'NONE',  ( 1.000000000000000000, 0.000000000000000000, 0.000000000000000000 ) ) ;
#51 = EDGE_LOOP ( 'NONE', ( #158, #207, #263, #120 ) ) ;
#52 = COORDINATED_UNIVERSAL_TIME_OFFSET ( 5, 0, .BEHIND. ) ;
#53 = EDGE_LOOP ( 'NONE', ( #8, #30, #102, #192 ) ) ;
#54 = CC_DESIGN_APPROVAL ( #76, ( #153 ) ) ;
#55 = DIRECTION ( 'NONE',  ( 0.000000000000000000, 0.000000000000000000, 1.000000000000000000 ) ) ;
#56 = VERTEX_POINT ( 'NONE', #226 ) ;
#57 = DESIGN_CONTEXT ( 'detailed design', #235, 'design' ) ;
#58 = CARTESIAN_POINT ( 'NONE',  ( -5.989999999999990443, 0.000000000000000000, -0.6250000000000000000 ) ) ;
#59 = ADVANCED_FACE ( 'NONE', ( #206 ), #42, .T. ) ;
#60 = CARTESIAN_POINT ( 'NONE',  ( 5.990000000000006430, 0.000000000000000000, 0.000000000000000000 ) ) ;
#61 = APPLICATION_CONTEXT ( 'configuration controlled 3d designs of mechanical parts and assemblies' ) ;
#62 = VERTEX_POINT ( 'NONE', #82 ) ;
#63 = LINE ( 'NONE', #122, #220 ) ;
#64 = SHAPE_DEFINITION_REPRESENTATION ( #66, #259 ) ;
#65 = CARTESIAN_POINT ( 'NONE',  ( 6.000000000000000888, 0.000000000000000000, 0.000000000000000000 ) ) ;
#66 = PRODUCT_DEFINITION_SHAPE ( 'NONE', 'NONE',  #92 ) ;
#67 = AXIS2_PLACEMENT_3D ( 'NONE', #60, #209, #123 ) ;
#68 = EDGE_CURVE ( 'NONE', #56, #62, #269, .T. ) ;
#69 = DIRECTION ( 'NONE',  ( 1.000000000000000000, -0.000000000000000000, -0.000000000000000000 ) ) ;
#70 = DIRECTION ( 'NONE',  ( -1.000000000000000000, -0.000000000000000000, -0.000000000000000000 ) ) ;
#71 = PERSON_AND_ORGANIZATION_ROLE ( 'creator' ) ;
#72 = APPROVAL_ROLE ( '' ) ;
#73 = PERSON ( 'UNSPECIFIED', 'UNSPECIFIED', 'UNSPECIFIED', ('UNSPECIFIED'), ('UNSPECIFIED'), ('UNSPECIFIED') ) ;
#74 = AXIS2_PLACEMENT_3D ( 'NONE', #272, #149, #222 ) ;
#75 = PERSON_AND_ORGANIZATION_ROLE ( 'classification_officer' ) ;
#76 = APPROVAL ( #38, 'UNSPECIFIED' ) ;
#77 = APPROVAL_DATE_TIME ( #5, #173 ) ;
#78 = AXIS2_PLACEMENT_3D ( 'NONE', #195, #69, #257 ) ;
#79 = DATE_AND_TIME ( #185, #201 ) ;
#80 = ORIENTED_EDGE ( 'NONE', *, *, #254, .T. ) ;
#81 = DIRECTION ( 'NONE',  ( 0.000000000000000000, 0.000000000000000000, -1.000000000000000000 ) ) ;
#82 = CARTESIAN_POINT ( 'NONE',  ( 5.990000000000006430, 0.000000000000000000, 0.6250000000000000000 ) ) ;
#83 = CARTESIAN_POINT ( 'NONE',  ( -6.000000000000000888, 0.000000000000000000, 0.000000000000000000 ) ) ;
#84 = EDGE_CURVE ( 'NONE', #49, #239, #9, .T. ) ;
#85 = AXIS2_PLACEMENT_3D ( 'NONE', #145, #36, #11 ) ;
#86 = DIRECTION ( 'NONE',  ( -1.000000000000000000, -0.000000000000000000, -0.000000000000000000 ) ) ;
#87 = ORGANIZATION ( 'UNSPECIFIED', 'UNSPECIFIED', '' ) ;
#88 = DIRECTION ( 'NONE',  ( -0.7071067811865474617, 0.000000000000000000, 0.7071067811865474617 ) ) ;
#89 = CONICAL_SURFACE ( 'NONE', #278, 0.6150000000000064304, 0.7853981633974482790 ) ;
#90 = CIRCLE ( 'NONE', #13, 0.6150000000000064304 ) ;
#91 =( LENGTH_UNIT ( ) NAMED_UNIT ( * ) SI_UNIT ( $, .METRE. ) );
#92 = PRODUCT_DEFINITION ( 'UNKNOWN', '', #98, #57 ) ;
#93 = DIRECTION ( 'NONE',  ( 0.000000000000000000, 0.000000000000000000, 1.000000000000000000 ) ) ;
#94 = EDGE_CURVE ( 'NONE', #6, #268, #188, .T. ) ;
#95 = AXIS2_PLACEMENT_3D ( 'NONE', #126, #86, #14 ) ;
#96 = DATE_TIME_ROLE ( 'creation_date' ) ;
#97 = ORIENTED_EDGE ( 'NONE', *, *, #142, .F. ) ;
#98 = PRODUCT_DEFINITION_FORMATION_WITH_SPECIFIED_SOURCE ( 'ANY', '', #16, .NOT_KNOWN. ) ;
#99 = PERSON_AND_ORGANIZATION ( #73, #87 ) ;
#100 = EDGE_CURVE ( 'NONE', #239, #49, #224, .T. ) ;
#101 = ORIENTED_EDGE ( 'NONE', *, *, #198, .T. ) ;
#102 = ORIENTED_EDGE ( 'NONE', *, *, #24, .F. ) ;
#103 = ADVANCED_FACE ( 'NONE', ( #174 ), #205, .T. ) ;
#104 = APPROVAL_DATE_TIME ( #12, #76 ) ;
#105 = ORIENTED_EDGE ( 'NONE', *, *, #202, .F. ) ;
#106 = AXIS2_PLACEMENT_3D ( 'NONE', #83, #127, #252 ) ;
#107 = CARTESIAN_POINT ( 'NONE',  ( -6.000000000000000888, 0.000000000000000000, 0.000000000000000000 ) ) ;
#108 = DIRECTION ( 'NONE',  ( 0.000000000000000000, 0.000000000000000000, -1.000000000000000000 ) ) ;
#109 = DIRECTION ( 'NONE',  ( 0.000000000000000000, 0.000000000000000000, -1.000000000000000000 ) ) ;
#110 = DIRECTION ( 'NONE',  ( -0.7071067811865474617, 8.659560562354932858E-17, -0.7071067811865474617 ) ) ;
#111 = DIRECTION ( 'NONE',  ( 1.000000000000000000, 0.000000000000000000, 0.000000000000000000 ) ) ;
#112 = DIMENSIONAL_EXPONENTS ( 1.000000000000000000, 0.000000000000000000, 0.000000000000000000, 0.000000000000000000, 0.000000000000000000, 0.000000000000000000, 0.000000000000000000 ) ;
#113 = LOCAL_TIME ( 8, 31, 33.00000000000000000, #184 ) ;
#114 = CALENDAR_DATE ( 2023, 7, 6 ) ;
#115 = CIRCLE ( 'NONE', #67, 0.6250000000000000000 ) ;
#116 = EDGE_LOOP ( 'NONE', ( #162, #80 ) ) ;
#117 = PERSON_AND_ORGANIZATION ( #73, #87 ) ;
#118 = AXIS2_PLACEMENT_3D ( 'NONE', #176, #111, #20 ) ;
#119 = COORDINATED_UNIVERSAL_TIME_OFFSET ( 5, 0, .BEHIND. ) ;
#120 = ORIENTED_EDGE ( 'NONE', *, *, #3, .F. ) ;
#121 = CC_DESIGN_APPROVAL ( #177, ( #92 ) ) ;
#122 = CARTESIAN_POINT ( 'NONE',  ( 6.000000000000000888, 7.654042494670955388E-17, -0.6250000000000000000 ) ) ;
#123 = DIRECTION ( 'NONE',  ( 0.000000000000000000, 0.000000000000000000, -1.000000000000000000 ) ) ;
#124 = CLOSED_SHELL ( 'NONE', ( #47, #230, #267, #133, #29, #196, #103, #59 ) ) ;
#125 = CC_DESIGN_DATE_AND_TIME_ASSIGNMENT ( #241, #266, ( #153 ) ) ;
#126 = CARTESIAN_POINT ( 'NONE',  ( 6.000000000000000888, 0.000000000000000000, 0.000000000000000000 ) ) ;
#127 = DIRECTION ( 'NONE',  ( -1.000000000000000000, -0.000000000000000000, -0.000000000000000000 ) ) ;
#128 = FACE_OUTER_BOUND ( 'NONE', #242, .T. ) ;
#129 = CYLINDRICAL_SURFACE ( 'NONE', #171, 0.6250000000000000000 ) ;
#130 = CARTESIAN_POINT ( 'NONE',  ( -6.000000000000000888, 7.592810154713528698E-17, 0.6149999999999898881 ) ) ;
#131 = DIRECTION ( 'NONE',  ( 0.7071067811865426878, 8.659560562354992023E-17, 0.7071067811865523467 ) ) ;
#132 = EDGE_LOOP ( 'NONE', ( #186, #134, #219, #105 ) ) ;
#133 = ADVANCED_FACE ( 'NONE', ( #128 ), #225, .T. ) ;
#134 = ORIENTED_EDGE ( 'NONE', *, *, #167, .F. ) ;
#135 = ORIENTED_EDGE ( 'NONE', *, *, #3, .T. ) ;
#136 = PERSON_AND_ORGANIZATION ( #73, #87 ) ;
#137 = ORIENTED_EDGE ( 'NONE', *, *, #221, .F. ) ;
#138 = CALENDAR_DATE ( 2023, 7, 6 ) ;
#139 = CARTESIAN_POINT ( 'NONE',  ( -6.000000000000000888, 0.000000000000000000, -0.6149999999999898881 ) ) ;
#140 = CIRCLE ( 'NONE', #152, 0.6250000000000000000 ) ;
#141 = CARTESIAN_POINT ( 'NONE',  ( -5.989999999999990443, 0.000000000000000000, 0.000000000000000000 ) ) ;
#142 = EDGE_CURVE ( 'NONE', #32, #6, #63, .T. ) ;
#143 = PERSON_AND_ORGANIZATION ( #73, #87 ) ;
#144 = AXIS2_PLACEMENT_3D ( 'NONE', #168, #40, #208 ) ;
#145 = CARTESIAN_POINT ( 'NONE',  ( -5.989999999999990443, 0.000000000000000000, 0.000000000000000000 ) ) ;
#146 = LINE ( 'NONE', #15, #48 ) ;
#147 = APPROVAL_PERSON_ORGANIZATION ( #143, #76, #163 ) ;
#148 = EDGE_CURVE ( 'NONE', #199, #32, #146, .T. ) ;
#149 = DIRECTION ( 'NONE',  ( 1.000000000000000000, -0.000000000000000000, -0.000000000000000000 ) ) ;
#150 = CARTESIAN_POINT ( 'NONE',  ( -5.989999999999990443, 7.654042494670957853E-17, 0.6250000000000000000 ) ) ;
#151 = DIRECTION ( 'NONE',  ( 0.000000000000000000, 0.000000000000000000, -1.000000000000000000 ) ) ;
#152 = AXIS2_PLACEMENT_3D ( 'NONE', #175, #194, #151 ) ;
#153 = SECURITY_CLASSIFICATION ( '', '', #156 ) ;
#154 = DIRECTION ( 'NONE',  ( 0.000000000000000000, 0.000000000000000000, 1.000000000000000000 ) ) ;
#155 = LENGTH_MEASURE_WITH_UNIT ( LENGTH_MEASURE( 0.02539999999999999897 ), #91 );
#156 = SECURITY_CLASSIFICATION_LEVEL ( 'unclassified' ) ;
#157 = MECHANICAL_CONTEXT ( 'NONE', #61, 'mechanical' ) ;
#158 = ORIENTED_EDGE ( 'NONE', *, *, #100, .F. ) ;
#159 = CALENDAR_DATE ( 2023, 7, 6 ) ;
#160 = APPROVAL_STATUS ( 'not_yet_approved' ) ;
#161 = ORIENTED_EDGE ( 'NONE', *, *, #84, .F. ) ;
#162 = ORIENTED_EDGE ( 'NONE', *, *, #167, .T. ) ;
#163 = APPROVAL_ROLE ( '' ) ;
#164 = VECTOR ( 'NONE', #248, 39.37007874015748143 ) ;
#165 = FACE_OUTER_BOUND ( 'NONE', #116, .T. ) ;
#166 = LINE ( 'NONE', #211, #271 ) ;
#167 = EDGE_CURVE ( 'NONE', #56, #199, #90, .T. ) ;
#168 = CARTESIAN_POINT ( 'NONE',  ( 6.000000000000000888, 0.000000000000000000, 0.000000000000000000 ) ) ;
#169 = AXIS2_PLACEMENT_3D ( 'NONE', #141, #275, #187 ) ;
#170 =( GEOMETRIC_REPRESENTATION_CONTEXT ( 3 ) GLOBAL_UNCERTAINTY_ASSIGNED_CONTEXT ( ( #21 ) ) GLOBAL_UNIT_ASSIGNED_CONTEXT ( ( #46, #18, #23 ) ) REPRESENTATION_CONTEXT ( 'NONE', 'WORKASPACE' ) );
#171 = AXIS2_PLACEMENT_3D ( 'NONE', #2, #70, #154 ) ;
#172 = CARTESIAN_POINT ( 'NONE',  ( 5.990000000000006430, 7.654042494670955388E-17, -0.6250000000000000000 ) ) ;
#173 = APPROVAL ( #216, 'UNSPECIFIED' ) ;
#174 = FACE_OUTER_BOUND ( 'NONE', #132, .T. ) ;
#175 = CARTESIAN_POINT ( 'NONE',  ( 5.990000000000006430, 0.000000000000000000, 0.000000000000000000 ) ) ;
#176 = CARTESIAN_POINT ( 'NONE',  ( 6.000000000000000888, 0.000000000000000000, 0.000000000000000000 ) ) ;
#177 = APPROVAL ( #160, 'UNSPECIFIED' ) ;
#178 = AXIS2_PLACEMENT_3D ( 'NONE', #107, #189, #270 ) ;
#179 = DIRECTION ( 'NONE',  ( -1.000000000000000000, -0.000000000000000000, -0.000000000000000000 ) ) ;
#180 = CARTESIAN_POINT ( 'NONE',  ( 0.000000000000000000, 0.000000000000000000, 0.000000000000000000 ) ) ;
#181 = APPROVAL_ROLE ( '' ) ;
#182 = ORIENTED_EDGE ( 'NONE', *, *, #221, .T. ) ;
#183 = CC_DESIGN_PERSON_AND_ORGANIZATION_ASSIGNMENT ( #136, #71, ( #98 ) ) ;
#184 = COORDINATED_UNIVERSAL_TIME_OFFSET ( 5, 0, .BEHIND. ) ;
#185 = CALENDAR_DATE ( 2023, 7, 6 ) ;
#186 = ORIENTED_EDGE ( 'NONE', *, *, #148, .F. ) ;
#187 = DIRECTION ( 'NONE',  ( 0.000000000000000000, 0.000000000000000000, -1.000000000000000000 ) ) ;
#188 = CIRCLE ( 'NONE', #74, 0.6250000000000000000 ) ;
#189 = DIRECTION ( 'NONE',  ( 1.000000000000000000, 0.000000000000000000, 0.000000000000000000 ) ) ;
#190 = CIRCLE ( 'NONE', #78, 0.6250000000000000000 ) ;
#191 = PLANE ( 'NONE',  #240 ) ;
#192 = ORIENTED_EDGE ( 'NONE', *, *, #68, .F. ) ;
#193 = CARTESIAN_POINT ( 'NONE',  ( 6.000000000000000888, 0.000000000000000000, 0.000000000000000000 ) ) ;
#194 = DIRECTION ( 'NONE',  ( -1.000000000000000000, 0.000000000000000000, 0.000000000000000000 ) ) ;
#195 = CARTESIAN_POINT ( 'NONE',  ( -5.989999999999990443, 0.000000000000000000, 0.000000000000000000 ) ) ;
#196 = ADVANCED_FACE ( 'NONE', ( #204 ), #10, .F. ) ;
#197 = PERSON_AND_ORGANIZATION ( #73, #87 ) ;
#198 = EDGE_CURVE ( 'NONE', #62, #268, #166, .T. ) ;
#199 = VERTEX_POINT ( 'NONE', #255 ) ;
#200 = ORIENTED_EDGE ( 'NONE', *, *, #273, .F. ) ;
#201 = LOCAL_TIME ( 8, 31, 33.00000000000000000, #119 ) ;
#202 = EDGE_CURVE ( 'NONE', #32, #62, #140, .T. ) ;
#203 = CALENDAR_DATE ( 2023, 7, 6 ) ;
#204 = FACE_OUTER_BOUND ( 'NONE', #4, .T. ) ;
#205 = CONICAL_SURFACE ( 'NONE', #144, 0.6150000000000064304, 0.7853981633974482790 ) ;
#206 = FACE_OUTER_BOUND ( 'NONE', #260, .T. ) ;
#207 = ORIENTED_EDGE ( 'NONE', *, *, #273, .T. ) ;
#208 = DIRECTION ( 'NONE',  ( 0.000000000000000000, 0.000000000000000000, 1.000000000000000000 ) ) ;
#209 = DIRECTION ( 'NONE',  ( -1.000000000000000000, 0.000000000000000000, 0.000000000000000000 ) ) ;
#210 = CC_DESIGN_PERSON_AND_ORGANIZATION_ASSIGNMENT ( #264, #75, ( #153 ) ) ;
#211 = CARTESIAN_POINT ( 'NONE',  ( 6.000000000000000888, 0.000000000000000000, 0.6250000000000000000 ) ) ;
#212 = VECTOR ( 'NONE', #88, 39.37007874015748854 ) ;
#213 = EDGE_LOOP ( 'NONE', ( #215, #217, #27, #247 ) ) ;
#214 = APPROVAL_DATE_TIME ( #79, #177 ) ;
#215 = ORIENTED_EDGE ( 'NONE', *, *, #24, .T. ) ;
#216 = APPROVAL_STATUS ( 'not_yet_approved' ) ;
#217 = ORIENTED_EDGE ( 'NONE', *, *, #142, .T. ) ;
#218 = DATE_AND_TIME ( #114, #113 ) ;
#219 = ORIENTED_EDGE ( 'NONE', *, *, #68, .T. ) ;
#220 = VECTOR ( 'NONE', #17, 39.37007874015748143 ) ;
#221 = EDGE_CURVE ( 'NONE', #268, #6, #190, .T. ) ;
#222 = DIRECTION ( 'NONE',  ( 0.000000000000000000, 0.000000000000000000, -1.000000000000000000 ) ) ;
#223 = DIRECTION ( 'NONE',  ( -1.000000000000000000, -0.000000000000000000, -0.000000000000000000 ) ) ;
#224 = CIRCLE ( 'NONE', #106, 0.6149999999999898881 ) ;
#225 = CYLINDRICAL_SURFACE ( 'NONE', #95, 0.6250000000000000000 ) ;
#226 = CARTESIAN_POINT ( 'NONE',  ( 6.000000000000000888, 0.000000000000000000, 0.6150000000000064304 ) ) ;
#227 = CIRCLE ( 'NONE', #118, 0.6150000000000064304 ) ;
#228 = APPROVAL_PERSON_ORGANIZATION ( #237, #177, #72 ) ;
#229 = CARTESIAN_POINT ( 'NONE',  ( 6.000000000000000888, 0.000000000000000000, 0.6150000000000064304 ) ) ;
#230 = ADVANCED_FACE ( 'NONE', ( #22 ), #89, .T. ) ;
#231 = APPROVAL_PERSON_ORGANIZATION ( #117, #173, #181 ) ;
#232 = DIRECTION ( 'NONE',  ( -1.000000000000000000, 0.000000000000000000, 0.000000000000000000 ) ) ;
#233 = CARTESIAN_POINT ( 'NONE',  ( -5.989999999999990443, 0.000000000000000000, 0.6250000000000000000 ) ) ;
#234 = FACE_OUTER_BOUND ( 'NONE', #213, .T. ) ;
#235 = APPLICATION_CONTEXT ( 'configuration controlled 3d designs of mechanical parts and assemblies' ) ;
#236 = ORIENTED_EDGE ( 'NONE', *, *, #100, .T. ) ;
#237 = PERSON_AND_ORGANIZATION ( #73, #87 ) ;
#238 = AXIS2_PLACEMENT_3D ( 'NONE', #180, #55, #50 ) ;
#239 = VERTEX_POINT ( 'NONE', #130 ) ;
#240 = AXIS2_PLACEMENT_3D ( 'NONE', #65, #34, #109 ) ;
#241 = DATE_AND_TIME ( #159, #28 ) ;
#242 = EDGE_LOOP ( 'NONE', ( #97, #25, #101, #182 ) ) ;
#243 = PERSON_AND_ORGANIZATION_ROLE ( 'design_supplier' ) ;
#244 = PERSON_AND_ORGANIZATION_ROLE ( 'creator' ) ;
#245 = CC_DESIGN_DATE_AND_TIME_ASSIGNMENT ( #218, #96, ( #92 ) ) ;
#246 = CC_DESIGN_SECURITY_CLASSIFICATION ( #153, ( #98 ) ) ;
#247 = ORIENTED_EDGE ( 'NONE', *, *, #198, .F. ) ;
#248 = DIRECTION ( 'NONE',  ( 0.7071067811865426878, 0.000000000000000000, -0.7071067811865523467 ) ) ;
#249 = FACE_OUTER_BOUND ( 'NONE', #51, .T. ) ;
#250 = LOCAL_TIME ( 8, 31, 33.00000000000000000, #258 ) ;
#251 = LINE ( 'NONE', #58, #164 ) ;
#252 = DIRECTION ( 'NONE',  ( 0.000000000000000000, 0.000000000000000000, -1.000000000000000000 ) ) ;
#253 = CARTESIAN_POINT ( 'NONE',  ( -6.000000000000000888, 0.000000000000000000, 0.000000000000000000 ) ) ;
#254 = EDGE_CURVE ( 'NONE', #199, #56, #227, .T. ) ;
#255 = CARTESIAN_POINT ( 'NONE',  ( 6.000000000000000888, 7.592810154713628539E-17, -0.6150000000000064304 ) ) ;
#256 = CONICAL_SURFACE ( 'NONE', #169, 0.6250000000000000000, 0.7853981633974551624 ) ;
#257 = DIRECTION ( 'NONE',  ( 0.000000000000000000, 0.000000000000000000, -1.000000000000000000 ) ) ;
#258 = COORDINATED_UNIVERSAL_TIME_OFFSET ( 5, 0, .BEHIND. ) ;
#259 = ADVANCED_BREP_SHAPE_REPRESENTATION ( 'NIL20-012.000-SL', ( #45, #238 ), #170 ) ;
#260 = EDGE_LOOP ( 'NONE', ( #200, #161, #135, #137 ) ) ;
#261 = APPLICATION_PROTOCOL_DEFINITION ( 'international standard', 'config_control_design', 1994, #235 ) ;
#262 = CC_DESIGN_PERSON_AND_ORGANIZATION_ASSIGNMENT ( #99, #243, ( #98 ) ) ;
#263 = ORIENTED_EDGE ( 'NONE', *, *, #94, .F. ) ;
#264 = PERSON_AND_ORGANIZATION ( #73, #87 ) ;
#265 = VECTOR ( 'NONE', #131, 39.37007874015748143 ) ;
#266 = DATE_TIME_ROLE ( 'classification_date' ) ;
#267 = ADVANCED_FACE ( 'NONE', ( #234 ), #129, .T. ) ;
#268 = VERTEX_POINT ( 'NONE', #233 ) ;
#269 = LINE ( 'NONE', #229, #212 ) ;
#270 = DIRECTION ( 'NONE',  ( 0.000000000000000000, 0.000000000000000000, -1.000000000000000000 ) ) ;
#271 = VECTOR ( 'NONE', #179, 39.37007874015748143 ) ;
#272 = CARTESIAN_POINT ( 'NONE',  ( -5.989999999999990443, 0.000000000000000000, 0.000000000000000000 ) ) ;
#273 = EDGE_CURVE ( 'NONE', #239, #268, #44, .T. ) ;
#274 = CC_DESIGN_APPROVAL ( #173, ( #98 ) ) ;
#275 = DIRECTION ( 'NONE',  ( 1.000000000000000000, -0.000000000000000000, -0.000000000000000000 ) ) ;
#276 = DIRECTION ( 'NONE',  ( 1.000000000000000000, 0.000000000000000000, 0.000000000000000000 ) ) ;
#277 = CARTESIAN_POINT ( 'NONE',  ( 6.000000000000000888, 0.000000000000000000, 0.000000000000000000 ) ) ;
#278 = AXIS2_PLACEMENT_3D ( 'NONE', #277, #232, #93 ) ;
ENDSEC;
END-ISO-10303-21;
