ISO-10303-21;
HEADER;
FILE_DESCRIPTION (( 'STEP AP203' ),
    '1' );
FILE_NAME ('NIL16SS-036.000-SL.step',
    '2023-06-07T12:31:28',
    ( '' ),
    ( '' ),
    'SwSTEP 2.0',
    'SolidWorks 2021',
    '' );
FILE_SCHEMA (( 'CONFIG_CONTROL_DESIGN' ));
ENDSEC;

DATA;
#1 = CARTESIAN_POINT ( 'NONE',  ( -18.00000000000000000, 6.062001655779388650E-17, 0.4899999999999983258 ) ) ;
#2 = VERTEX_POINT ( 'NONE', #1 ) ;
#3 = ORIENTED_EDGE ( 'NONE', *, *, #8, .F. ) ;
#4 = ORIENTED_EDGE ( 'NONE', *, *, #209, .T. ) ;
#5 = DIRECTION ( 'NONE',  ( -1.000000000000000000, 0.000000000000000000, 0.000000000000000000 ) ) ;
#6 = LENGTH_MEASURE_WITH_UNIT ( LENGTH_MEASURE( 0.02539999999999999897 ), #201 );
#7 = APPROVAL_STATUS ( 'not_yet_approved' ) ;
#8 = EDGE_CURVE ( 'NONE', #214, #172, #79, .T. ) ;
#9 = CIRCLE ( 'NONE', #161, 0.5000000000000000000 ) ;
#10 = SECURITY_CLASSIFICATION_LEVEL ( 'unclassified' ) ;
#11 = EDGE_LOOP ( 'NONE', ( #131, #37, #57, #3 ) ) ;
#12 = CARTESIAN_POINT ( 'NONE',  ( 17.99000000000000199, 0.000000000000000000, 0.000000000000000000 ) ) ;
#13 = DIRECTION ( 'NONE',  ( 0.000000000000000000, 0.000000000000000000, 1.000000000000000000 ) ) ;
#14 = LINE ( 'NONE', #278, #56 ) ;
#15 = FACE_OUTER_BOUND ( 'NONE', #258, .T. ) ;
#16 = EDGE_LOOP ( 'NONE', ( #260, #154, #200, #60 ) ) ;
#17 =( CONVERSION_BASED_UNIT ( 'INCH', #6 ) LENGTH_UNIT ( ) NAMED_UNIT ( #101 ) );
#18 = EDGE_CURVE ( 'NONE', #2, #80, #110, .T. ) ;
#19 = ORIENTED_EDGE ( 'NONE', *, *, #18, .T. ) ;
#20 = ORIENTED_EDGE ( 'NONE', *, *, #114, .T. ) ;
#21 = AXIS2_PLACEMENT_3D ( 'NONE', #74, #73, #234 ) ;
#22 = APPROVAL_STATUS ( 'not_yet_approved' ) ;
#23 = ORIENTED_EDGE ( 'NONE', *, *, #155, .F. ) ;
#24 = EDGE_CURVE ( 'NONE', #80, #2, #157, .T. ) ;
#25 = CARTESIAN_POINT ( 'NONE',  ( -17.99000000000000199, 0.000000000000000000, 0.000000000000000000 ) ) ;
#26 = DIRECTION ( 'NONE',  ( 0.000000000000000000, 0.000000000000000000, -1.000000000000000000 ) ) ;
#27 = CALENDAR_DATE ( 2023, 7, 6 ) ;
#28 = AXIS2_PLACEMENT_3D ( 'NONE', #253, #124, #148 ) ;
#29 = CC_DESIGN_PERSON_AND_ORGANIZATION_ASSIGNMENT ( #224, #244, ( #181 ) ) ;
#30 = DATE_AND_TIME ( #142, #192 ) ;
#31 = CYLINDRICAL_SURFACE ( 'NONE', #177, 0.5000000000000000000 ) ;
#32 = DIRECTION ( 'NONE',  ( 0.7071067811864557573, 8.659560562356056985E-17, 0.7071067811866392772 ) ) ;
#33 = FACE_OUTER_BOUND ( 'NONE', #133, .T. ) ;
#34 = CC_DESIGN_DATE_AND_TIME_ASSIGNMENT ( #94, #95, ( #181 ) ) ;
#35 = DIRECTION ( 'NONE',  ( 0.000000000000000000, 0.000000000000000000, -1.000000000000000000 ) ) ;
#36 = DIRECTION ( 'NONE',  ( 0.000000000000000000, 0.000000000000000000, -1.000000000000000000 ) ) ;
#37 = ORIENTED_EDGE ( 'NONE', *, *, #48, .T. ) ;
#38 = DIRECTION ( 'NONE',  ( 1.000000000000000000, -0.000000000000000000, -0.000000000000000000 ) ) ;
#39 = PERSON_AND_ORGANIZATION_ROLE ( 'design_owner' ) ;
#40 = ORIENTED_EDGE ( 'NONE', *, *, #70, .F. ) ;
#41 = CARTESIAN_POINT ( 'NONE',  ( 17.99000000000000199, 0.000000000000000000, 0.000000000000000000 ) ) ;
#42 = AXIS2_PLACEMENT_3D ( 'NONE', #191, #195, #147 ) ;
#43 = APPLICATION_PROTOCOL_DEFINITION ( 'international standard', 'config_control_design', 1994, #196 ) ;
#44 = FACE_OUTER_BOUND ( 'NONE', #16, .T. ) ;
#45 = APPROVAL_ROLE ( '' ) ;
#46 = DATE_TIME_ROLE ( 'classification_date' ) ;
#47 = PERSON_AND_ORGANIZATION ( #66, #84 ) ;
#48 = EDGE_CURVE ( 'NONE', #63, #106, #257, .T. ) ;
#49 = CARTESIAN_POINT ( 'NONE',  ( -18.00000000000000000, 0.000000000000000000, -0.4899999999999983258 ) ) ;
#50 = ADVANCED_FACE ( 'NONE', ( #235 ), #168, .T. ) ;
#51 = DIRECTION ( 'NONE',  ( 0.7071067811864557573, 0.000000000000000000, -0.7071067811866392772 ) ) ;
#52 = DIRECTION ( 'NONE',  ( 0.000000000000000000, 0.000000000000000000, -1.000000000000000000 ) ) ;
#53 = CARTESIAN_POINT ( 'NONE',  ( 17.99000000000000199, 6.123233995736766036E-17, -0.5000000000000000000 ) ) ;
#54 = ORIENTED_EDGE ( 'NONE', *, *, #155, .T. ) ;
#55 = DIRECTION ( 'NONE',  ( 1.000000000000000000, 0.000000000000000000, 0.000000000000000000 ) ) ;
#56 = VECTOR ( 'NONE', #256, 39.37007874015748143 ) ;
#57 = ORIENTED_EDGE ( 'NONE', *, *, #103, .F. ) ;
#58 = CONICAL_SURFACE ( 'NONE', #42, 0.4900000000000027667, 0.7853981633974653764 ) ;
#59 = AXIS2_PLACEMENT_3D ( 'NONE', #41, #5, #89 ) ;
#60 = ORIENTED_EDGE ( 'NONE', *, *, #209, .F. ) ;
#61 = MANIFOLD_SOLID_BREP ( 'Chamfer1', #75 ) ;
#62 = DIRECTION ( 'NONE',  ( -1.000000000000000000, -0.000000000000000000, -0.000000000000000000 ) ) ;
#63 = VERTEX_POINT ( 'NONE', #169 ) ;
#64 = PLANE ( 'NONE',  #93 ) ;
#65 = ADVANCED_FACE ( 'NONE', ( #15 ), #208, .T. ) ;
#66 = PERSON ( 'UNSPECIFIED', 'UNSPECIFIED', 'UNSPECIFIED', ('UNSPECIFIED'), ('UNSPECIFIED'), ('UNSPECIFIED') ) ;
#67 = MECHANICAL_CONTEXT ( 'NONE', #196, 'mechanical' ) ;
#68 = ADVANCED_FACE ( 'NONE', ( #188 ), #31, .T. ) ;
#69 = COORDINATED_UNIVERSAL_TIME_OFFSET ( 5, 0, .BEHIND. ) ;
#70 = EDGE_CURVE ( 'NONE', #214, #63, #98, .T. ) ;
#71 = CALENDAR_DATE ( 2023, 7, 6 ) ;
#72 = PRODUCT ( 'NIL16SS-036.000-SL', 'NIL16SS-036.000-SL', '', ( #67 ) ) ;
#73 = DIRECTION ( 'NONE',  ( 1.000000000000000000, 0.000000000000000000, 0.000000000000000000 ) ) ;
#74 = CARTESIAN_POINT ( 'NONE',  ( 18.00000000000000000, 0.000000000000000000, 0.000000000000000000 ) ) ;
#75 = CLOSED_SHELL ( 'NONE', ( #78, #99, #68, #50, #65, #272, #153, #228 ) ) ;
#76 = CARTESIAN_POINT ( 'NONE',  ( -17.99000000000000199, 6.123233995736766036E-17, 0.5000000000000000000 ) ) ;
#77 = CARTESIAN_POINT ( 'NONE',  ( -18.00000000000000000, 0.000000000000000000, 0.000000000000000000 ) ) ;
#78 = ADVANCED_FACE ( 'NONE', ( #186 ), #213, .T. ) ;
#79 = LINE ( 'NONE', #122, #247 ) ;
#80 = VERTEX_POINT ( 'NONE', #49 ) ;
#81 = PERSON_AND_ORGANIZATION ( #66, #84 ) ;
#82 = ORIENTED_EDGE ( 'NONE', *, *, #158, .T. ) ;
#83 = PERSON_AND_ORGANIZATION ( #66, #84 ) ;
#84 = ORGANIZATION ( 'UNSPECIFIED', 'UNSPECIFIED', '' ) ;
#85 = DIRECTION ( 'NONE',  ( 0.000000000000000000, 0.000000000000000000, -1.000000000000000000 ) ) ;
#86 = ORIENTED_EDGE ( 'NONE', *, *, #18, .F. ) ;
#87 =( NAMED_UNIT ( * ) SI_UNIT ( $, .STERADIAN. ) SOLID_ANGLE_UNIT ( ) );
#88 = CONICAL_SURFACE ( 'NONE', #251, 0.5000000000000000000, 0.7853981633975780641 ) ;
#89 = DIRECTION ( 'NONE',  ( 0.000000000000000000, 0.000000000000000000, -1.000000000000000000 ) ) ;
#90 = APPROVAL_DATE_TIME ( #160, #270 ) ;
#91 = CC_DESIGN_PERSON_AND_ORGANIZATION_ASSIGNMENT ( #180, #268, ( #139 ) ) ;
#92 = CALENDAR_DATE ( 2023, 7, 6 ) ;
#93 = AXIS2_PLACEMENT_3D ( 'NONE', #115, #55, #127 ) ;
#94 = DATE_AND_TIME ( #92, #205 ) ;
#95 = DATE_TIME_ROLE ( 'creation_date' ) ;
#96 = CIRCLE ( 'NONE', #261, 0.5000000000000000000 ) ;
#97 = CARTESIAN_POINT ( 'NONE',  ( 18.00000000000000000, 6.000769315822064266E-17, -0.4900000000000027667 ) ) ;
#98 = CIRCLE ( 'NONE', #237, 0.4900000000000027667 ) ;
#99 = ADVANCED_FACE ( 'NONE', ( #276 ), #58, .T. ) ;
#100 = DIRECTION ( 'NONE',  ( -1.000000000000000000, -0.000000000000000000, -0.000000000000000000 ) ) ;
#101 = DIMENSIONAL_EXPONENTS ( 1.000000000000000000, 0.000000000000000000, 0.000000000000000000, 0.000000000000000000, 0.000000000000000000, 0.000000000000000000, 0.000000000000000000 ) ;
#102 = DIRECTION ( 'NONE',  ( 0.000000000000000000, 0.000000000000000000, 1.000000000000000000 ) ) ;
#103 = EDGE_CURVE ( 'NONE', #172, #106, #9, .T. ) ;
#104 = DIRECTION ( 'NONE',  ( 0.000000000000000000, 0.000000000000000000, -1.000000000000000000 ) ) ;
#105 = CARTESIAN_POINT ( 'NONE',  ( 18.00000000000000000, 0.000000000000000000, 0.000000000000000000 ) ) ;
#106 = VERTEX_POINT ( 'NONE', #53 ) ;
#107 = CARTESIAN_POINT ( 'NONE',  ( -17.99000000000000199, 0.000000000000000000, 0.5000000000000000000 ) ) ;
#108 = VECTOR ( 'NONE', #51, 39.37007874015748143 ) ;
#109 = ORIENTED_EDGE ( 'NONE', *, *, #24, .T. ) ;
#110 = CIRCLE ( 'NONE', #121, 0.4899999999999983258 ) ;
#111 = AXIS2_PLACEMENT_3D ( 'NONE', #233, #206, #212 ) ;
#112 = DIRECTION ( 'NONE',  ( 0.000000000000000000, 0.000000000000000000, -1.000000000000000000 ) ) ;
#113 = EDGE_LOOP ( 'NONE', ( #23, #236, #170, #4 ) ) ;
#114 = EDGE_CURVE ( 'NONE', #2, #174, #123, .T. ) ;
#115 = CARTESIAN_POINT ( 'NONE',  ( -18.00000000000000000, 0.000000000000000000, 0.000000000000000000 ) ) ;
#116 = COORDINATED_UNIVERSAL_TIME_OFFSET ( 5, 0, .BEHIND. ) ;
#117 = COORDINATED_UNIVERSAL_TIME_OFFSET ( 5, 0, .BEHIND. ) ;
#118 = CC_DESIGN_PERSON_AND_ORGANIZATION_ASSIGNMENT ( #47, #204, ( #141 ) ) ;
#119 = CIRCLE ( 'NONE', #225, 0.4900000000000027667 ) ;
#120 = DIRECTION ( 'NONE',  ( -0.7071067811865353603, 0.000000000000000000, 0.7071067811865595631 ) ) ;
#121 = AXIS2_PLACEMENT_3D ( 'NONE', #193, #273, #52 ) ;
#122 = CARTESIAN_POINT ( 'NONE',  ( 18.00000000000000000, 0.000000000000000000, 0.4900000000000027667 ) ) ;
#123 = LINE ( 'NONE', #76, #267 ) ;
#124 = DIRECTION ( 'NONE',  ( 1.000000000000000000, -0.000000000000000000, -0.000000000000000000 ) ) ;
#125 = EDGE_LOOP ( 'NONE', ( #238, #54, #255, #199 ) ) ;
#126 = ORIENTED_EDGE ( 'NONE', *, *, #137, .F. ) ;
#127 = DIRECTION ( 'NONE',  ( 0.000000000000000000, 0.000000000000000000, -1.000000000000000000 ) ) ;
#128 = EDGE_LOOP ( 'NONE', ( #109, #19 ) ) ;
#129 = CARTESIAN_POINT ( 'NONE',  ( 18.00000000000000000, 0.000000000000000000, 0.000000000000000000 ) ) ;
#130 = APPROVAL ( #22, 'UNSPECIFIED' ) ;
#131 = ORIENTED_EDGE ( 'NONE', *, *, #158, .F. ) ;
#132 = LOCAL_TIME ( 8, 31, 28.00000000000000000, #265 ) ;
#133 = EDGE_LOOP ( 'NONE', ( #152, #40, #216, #146 ) ) ;
#134 = AXIS2_PLACEMENT_3D ( 'NONE', #77, #100, #36 ) ;
#135 = LOCAL_TIME ( 8, 31, 28.00000000000000000, #69 ) ;
#136 = APPLICATION_PROTOCOL_DEFINITION ( 'international standard', 'config_control_design', 1994, #189 ) ;
#137 = EDGE_CURVE ( 'NONE', #80, #218, #275, .T. ) ;
#138 = DIRECTION ( 'NONE',  ( 1.000000000000000000, 0.000000000000000000, 0.000000000000000000 ) ) ;
#139 = SECURITY_CLASSIFICATION ( '', '', #10 ) ;
#140 = SHAPE_DEFINITION_REPRESENTATION ( #240, #264 ) ;
#141 = PRODUCT_DEFINITION_FORMATION_WITH_SPECIFIED_SOURCE ( 'ANY', '', #72, .NOT_KNOWN. ) ;
#142 = CALENDAR_DATE ( 2023, 7, 6 ) ;
#143 = DATE_AND_TIME ( #27, #165 ) ;
#144 = VECTOR ( 'NONE', #62, 39.37007874015748143 ) ;
#145 = PERSON_AND_ORGANIZATION_ROLE ( 'creator' ) ;
#146 = ORIENTED_EDGE ( 'NONE', *, *, #263, .F. ) ;
#147 = DIRECTION ( 'NONE',  ( 0.000000000000000000, 0.000000000000000000, 1.000000000000000000 ) ) ;
#148 = DIRECTION ( 'NONE',  ( 0.000000000000000000, 0.000000000000000000, -1.000000000000000000 ) ) ;
#149 = DIRECTION ( 'NONE',  ( 1.000000000000000000, 0.000000000000000000, 0.000000000000000000 ) ) ;
#150 = ORIENTED_EDGE ( 'NONE', *, *, #70, .T. ) ;
#151 = ORIENTED_EDGE ( 'NONE', *, *, #230, .F. ) ;
#152 = ORIENTED_EDGE ( 'NONE', *, *, #48, .F. ) ;
#153 = ADVANCED_FACE ( 'NONE', ( #33 ), #219, .T. ) ;
#154 = ORIENTED_EDGE ( 'NONE', *, *, #24, .F. ) ;
#155 = EDGE_CURVE ( 'NONE', #106, #218, #14, .T. ) ;
#156 = APPROVAL_ROLE ( '' ) ;
#157 = CIRCLE ( 'NONE', #134, 0.4899999999999983258 ) ;
#158 = EDGE_CURVE ( 'NONE', #63, #214, #119, .T. ) ;
#159 = CALENDAR_DATE ( 2023, 7, 6 ) ;
#160 = DATE_AND_TIME ( #71, #132 ) ;
#161 = AXIS2_PLACEMENT_3D ( 'NONE', #12, #231, #104 ) ;
#162 = APPROVAL_PERSON_ORGANIZATION ( #83, #130, #156 ) ;
#163 = CARTESIAN_POINT ( 'NONE',  ( 18.00000000000000000, 0.000000000000000000, 0.000000000000000000 ) ) ;
#164 = DIRECTION ( 'NONE',  ( -1.000000000000000000, -0.000000000000000000, -0.000000000000000000 ) ) ;
#165 = LOCAL_TIME ( 8, 31, 28.00000000000000000, #185 ) ;
#166 = EDGE_CURVE ( 'NONE', #172, #174, #259, .T. ) ;
#167 = DIRECTION ( 'NONE',  ( -0.7071067811865353603, 8.659560562355080770E-17, -0.7071067811865595631 ) ) ;
#168 = CYLINDRICAL_SURFACE ( 'NONE', #111, 0.5000000000000000000 ) ;
#169 = CARTESIAN_POINT ( 'NONE',  ( 18.00000000000000000, 6.062001655779414535E-17, -0.4900000000000027667 ) ) ;
#170 = ORIENTED_EDGE ( 'NONE', *, *, #166, .T. ) ;
#171 = DIRECTION ( 'NONE',  ( 1.000000000000000000, -0.000000000000000000, -0.000000000000000000 ) ) ;
#172 = VERTEX_POINT ( 'NONE', #197 ) ;
#173 = DIRECTION ( 'NONE',  ( 1.000000000000000000, 0.000000000000000000, 0.000000000000000000 ) ) ;
#174 = VERTEX_POINT ( 'NONE', #107 ) ;
#175 = FACE_OUTER_BOUND ( 'NONE', #128, .T. ) ;
#176 = CC_DESIGN_APPROVAL ( #270, ( #141 ) ) ;
#177 = AXIS2_PLACEMENT_3D ( 'NONE', #163, #164, #13 ) ;
#178 =( GEOMETRIC_REPRESENTATION_CONTEXT ( 3 ) GLOBAL_UNCERTAINTY_ASSIGNED_CONTEXT ( ( #184 ) ) GLOBAL_UNIT_ASSIGNED_CONTEXT ( ( #17, #217, #87 ) ) REPRESENTATION_CONTEXT ( 'NONE', 'WORKASPACE' ) );
#179 = CARTESIAN_POINT ( 'NONE',  ( -17.99000000000000199, 0.000000000000000000, 0.000000000000000000 ) ) ;
#180 = PERSON_AND_ORGANIZATION ( #66, #84 ) ;
#181 = PRODUCT_DEFINITION ( 'UNKNOWN', '', #141, #250 ) ;
#182 = APPROVAL_DATE_TIME ( #248, #130 ) ;
#183 = PERSON_AND_ORGANIZATION ( #66, #84 ) ;
#184 = UNCERTAINTY_MEASURE_WITH_UNIT (LENGTH_MEASURE( 1.000000000000000082E-05 ), #17, 'distance_accuracy_value', 'NONE');
#185 = COORDINATED_UNIVERSAL_TIME_OFFSET ( 5, 0, .BEHIND. ) ;
#186 = FACE_OUTER_BOUND ( 'NONE', #229, .T. ) ;
#187 = CC_DESIGN_APPROVAL ( #130, ( #181 ) ) ;
#188 = FACE_OUTER_BOUND ( 'NONE', #125, .T. ) ;
#189 = APPLICATION_CONTEXT ( 'configuration controlled 3d designs of mechanical parts and assemblies' ) ;
#190 = CC_DESIGN_PERSON_AND_ORGANIZATION_ASSIGNMENT ( #81, #39, ( #72 ) ) ;
#191 = CARTESIAN_POINT ( 'NONE',  ( 18.00000000000000000, 0.000000000000000000, 0.000000000000000000 ) ) ;
#192 = LOCAL_TIME ( 8, 31, 28.00000000000000000, #116 ) ;
#193 = CARTESIAN_POINT ( 'NONE',  ( -18.00000000000000000, 0.000000000000000000, 0.000000000000000000 ) ) ;
#194 = AXIS2_PLACEMENT_3D ( 'NONE', #25, #241, #26 ) ;
#195 = DIRECTION ( 'NONE',  ( -1.000000000000000000, 0.000000000000000000, 0.000000000000000000 ) ) ;
#196 = APPLICATION_CONTEXT ( 'configuration controlled 3d designs of mechanical parts and assemblies' ) ;
#197 = CARTESIAN_POINT ( 'NONE',  ( 17.99000000000000199, 0.000000000000000000, 0.5000000000000000000 ) ) ;
#198 = CIRCLE ( 'NONE', #194, 0.5000000000000000000 ) ;
#199 = ORIENTED_EDGE ( 'NONE', *, *, #166, .F. ) ;
#200 = ORIENTED_EDGE ( 'NONE', *, *, #137, .T. ) ;
#201 =( LENGTH_UNIT ( ) NAMED_UNIT ( * ) SI_UNIT ( $, .METRE. ) );
#202 = DIRECTION ( 'NONE',  ( 0.000000000000000000, 0.000000000000000000, -1.000000000000000000 ) ) ;
#203 = CIRCLE ( 'NONE', #59, 0.5000000000000000000 ) ;
#204 = PERSON_AND_ORGANIZATION_ROLE ( 'design_supplier' ) ;
#205 = LOCAL_TIME ( 8, 31, 28.00000000000000000, #117 ) ;
#206 = DIRECTION ( 'NONE',  ( -1.000000000000000000, -0.000000000000000000, -0.000000000000000000 ) ) ;
#207 = CC_DESIGN_APPROVAL ( #215, ( #139 ) ) ;
#208 = PLANE ( 'NONE',  #21 ) ;
#209 = EDGE_CURVE ( 'NONE', #174, #218, #96, .T. ) ;
#210 = CARTESIAN_POINT ( 'NONE',  ( 18.00000000000000000, 0.000000000000000000, 0.000000000000000000 ) ) ;
#211 = DIRECTION ( 'NONE',  ( -1.000000000000000000, 0.000000000000000000, 0.000000000000000000 ) ) ;
#212 = DIRECTION ( 'NONE',  ( 0.000000000000000000, 0.000000000000000000, 1.000000000000000000 ) ) ;
#213 = CONICAL_SURFACE ( 'NONE', #28, 0.5000000000000000000, 0.7853981633975780641 ) ;
#214 = VERTEX_POINT ( 'NONE', #243 ) ;
#215 = APPROVAL ( #7, 'UNSPECIFIED' ) ;
#216 = ORIENTED_EDGE ( 'NONE', *, *, #8, .T. ) ;
#217 =( NAMED_UNIT ( * ) PLANE_ANGLE_UNIT ( ) SI_UNIT ( $, .RADIAN. ) );
#218 = VERTEX_POINT ( 'NONE', #223 ) ;
#219 = CONICAL_SURFACE ( 'NONE', #262, 0.4900000000000027667, 0.7853981633974653764 ) ;
#220 = CARTESIAN_POINT ( 'NONE',  ( -17.99000000000000199, 0.000000000000000000, 0.000000000000000000 ) ) ;
#221 = CC_DESIGN_PERSON_AND_ORGANIZATION_ASSIGNMENT ( #249, #145, ( #141 ) ) ;
#222 = CARTESIAN_POINT ( 'NONE',  ( 18.00000000000000000, 0.000000000000000000, 0.5000000000000000000 ) ) ;
#223 = CARTESIAN_POINT ( 'NONE',  ( -17.99000000000000199, 6.123233995736766036E-17, -0.5000000000000000000 ) ) ;
#224 = PERSON_AND_ORGANIZATION ( #66, #84 ) ;
#225 = AXIS2_PLACEMENT_3D ( 'NONE', #129, #138, #202 ) ;
#226 = CC_DESIGN_DATE_AND_TIME_ASSIGNMENT ( #143, #46, ( #139 ) ) ;
#227 = PERSON_AND_ORGANIZATION ( #66, #84 ) ;
#228 = ADVANCED_FACE ( 'NONE', ( #44 ), #88, .T. ) ;
#229 = EDGE_LOOP ( 'NONE', ( #86, #20, #151, #126 ) ) ;
#230 = EDGE_CURVE ( 'NONE', #218, #174, #198, .T. ) ;
#231 = DIRECTION ( 'NONE',  ( -1.000000000000000000, 0.000000000000000000, 0.000000000000000000 ) ) ;
#232 = APPROVAL_PERSON_ORGANIZATION ( #227, #270, #45 ) ;
#233 = CARTESIAN_POINT ( 'NONE',  ( 18.00000000000000000, 0.000000000000000000, 0.000000000000000000 ) ) ;
#234 = DIRECTION ( 'NONE',  ( 0.000000000000000000, 0.000000000000000000, -1.000000000000000000 ) ) ;
#235 = FACE_OUTER_BOUND ( 'NONE', #113, .T. ) ;
#236 = ORIENTED_EDGE ( 'NONE', *, *, #263, .T. ) ;
#237 = AXIS2_PLACEMENT_3D ( 'NONE', #105, #149, #35 ) ;
#238 = ORIENTED_EDGE ( 'NONE', *, *, #103, .T. ) ;
#239 = CARTESIAN_POINT ( 'NONE',  ( 0.000000000000000000, 0.000000000000000000, 0.000000000000000000 ) ) ;
#240 = PRODUCT_DEFINITION_SHAPE ( 'NONE', 'NONE',  #181 ) ;
#241 = DIRECTION ( 'NONE',  ( 1.000000000000000000, -0.000000000000000000, -0.000000000000000000 ) ) ;
#242 = DIRECTION ( 'NONE',  ( 0.000000000000000000, 0.000000000000000000, 1.000000000000000000 ) ) ;
#243 = CARTESIAN_POINT ( 'NONE',  ( 18.00000000000000000, 0.000000000000000000, 0.4900000000000027667 ) ) ;
#244 = PERSON_AND_ORGANIZATION_ROLE ( 'creator' ) ;
#245 = APPROVAL_STATUS ( 'not_yet_approved' ) ;
#246 = CC_DESIGN_SECURITY_CLASSIFICATION ( #139, ( #141 ) ) ;
#247 = VECTOR ( 'NONE', #120, 39.37007874015748854 ) ;
#248 = DATE_AND_TIME ( #159, #135 ) ;
#249 = PERSON_AND_ORGANIZATION ( #66, #84 ) ;
#250 = DESIGN_CONTEXT ( 'detailed design', #189, 'design' ) ;
#251 = AXIS2_PLACEMENT_3D ( 'NONE', #179, #38, #85 ) ;
#252 = AXIS2_PLACEMENT_3D ( 'NONE', #239, #242, #173 ) ;
#253 = CARTESIAN_POINT ( 'NONE',  ( -17.99000000000000199, 0.000000000000000000, 0.000000000000000000 ) ) ;
#254 = CARTESIAN_POINT ( 'NONE',  ( -17.99000000000000199, 0.000000000000000000, -0.5000000000000000000 ) ) ;
#255 = ORIENTED_EDGE ( 'NONE', *, *, #230, .T. ) ;
#256 = DIRECTION ( 'NONE',  ( -1.000000000000000000, -0.000000000000000000, -0.000000000000000000 ) ) ;
#257 = LINE ( 'NONE', #97, #269 ) ;
#258 = EDGE_LOOP ( 'NONE', ( #150, #82 ) ) ;
#259 = LINE ( 'NONE', #222, #144 ) ;
#260 = ORIENTED_EDGE ( 'NONE', *, *, #114, .F. ) ;
#261 = AXIS2_PLACEMENT_3D ( 'NONE', #220, #171, #112 ) ;
#262 = AXIS2_PLACEMENT_3D ( 'NONE', #210, #211, #102 ) ;
#263 = EDGE_CURVE ( 'NONE', #106, #172, #203, .T. ) ;
#264 = ADVANCED_BREP_SHAPE_REPRESENTATION ( 'NIL16SS-036.000-SL', ( #61, #252 ), #178 ) ;
#265 = COORDINATED_UNIVERSAL_TIME_OFFSET ( 5, 0, .BEHIND. ) ;
#266 = APPROVAL_ROLE ( '' ) ;
#267 = VECTOR ( 'NONE', #32, 39.37007874015748143 ) ;
#268 = PERSON_AND_ORGANIZATION_ROLE ( 'classification_officer' ) ;
#269 = VECTOR ( 'NONE', #167, 39.37007874015748854 ) ;
#270 = APPROVAL ( #245, 'UNSPECIFIED' ) ;
#271 = APPROVAL_DATE_TIME ( #30, #215 ) ;
#272 = ADVANCED_FACE ( 'NONE', ( #175 ), #64, .F. ) ;
#273 = DIRECTION ( 'NONE',  ( -1.000000000000000000, -0.000000000000000000, -0.000000000000000000 ) ) ;
#274 = PRODUCT_RELATED_PRODUCT_CATEGORY ( 'detail', '', ( #72 ) ) ;
#275 = LINE ( 'NONE', #254, #108 ) ;
#276 = FACE_OUTER_BOUND ( 'NONE', #11, .T. ) ;
#277 = APPROVAL_PERSON_ORGANIZATION ( #183, #215, #266 ) ;
#278 = CARTESIAN_POINT ( 'NONE',  ( 18.00000000000000000, 6.123233995736766036E-17, -0.5000000000000000000 ) ) ;
ENDSEC;
END-ISO-10303-21;
