ISO-10303-21;
HEADER;
FILE_DESCRIPTION (( 'STEP AP203' ),
    '1' );
FILE_NAME ('NIL16SS-024.000-SL.step',
    '2023-06-07T12:31:23',
    ( '' ),
    ( '' ),
    'SwSTEP 2.0',
    'SolidWorks 2021',
    '' );
FILE_SCHEMA (( 'CONFIG_CONTROL_DESIGN' ));
ENDSEC;

DATA;
#1 = VECTOR ( 'NONE', #221, 39.37007874015748143 ) ;
#2 = APPROVAL_ROLE ( '' ) ;
#3 = ORIENTED_EDGE ( 'NONE', *, *, #101, .T. ) ;
#4 = CC_DESIGN_DATE_AND_TIME_ASSIGNMENT ( #274, #277, ( #200 ) ) ;
#5 = DIRECTION ( 'NONE',  ( -1.000000000000000000, 0.000000000000000000, 0.000000000000000000 ) ) ;
#6 = DIRECTION ( 'NONE',  ( 0.000000000000000000, 0.000000000000000000, -1.000000000000000000 ) ) ;
#7 = CARTESIAN_POINT ( 'NONE',  ( 12.00000000000000178, 0.000000000000000000, 0.000000000000000000 ) ) ;
#8 = CIRCLE ( 'NONE', #23, 0.5000000000000000000 ) ;
#9 = CARTESIAN_POINT ( 'NONE',  ( -11.98999999999998067, 0.000000000000000000, 0.5000000000000000000 ) ) ;
#10 = DIRECTION ( 'NONE',  ( 0.000000000000000000, 0.000000000000000000, -1.000000000000000000 ) ) ;
#11 = DIRECTION ( 'NONE',  ( 0.000000000000000000, 0.000000000000000000, 1.000000000000000000 ) ) ;
#12 =( NAMED_UNIT ( * ) SI_UNIT ( $, .STERADIAN. ) SOLID_ANGLE_UNIT ( ) );
#13 = LINE ( 'NONE', #247, #1 ) ;
#14 = DIRECTION ( 'NONE',  ( 0.000000000000000000, 0.000000000000000000, 1.000000000000000000 ) ) ;
#15 = CONICAL_SURFACE ( 'NONE', #99, 0.4900000000000113709, 0.7853981633974722598 ) ;
#16 = SECURITY_CLASSIFICATION_LEVEL ( 'unclassified' ) ;
#17 = ORIENTED_EDGE ( 'NONE', *, *, #53, .T. ) ;
#18 = AXIS2_PLACEMENT_3D ( 'NONE', #135, #11, #100 ) ;
#19 = ORIENTED_EDGE ( 'NONE', *, *, #203, .F. ) ;
#20 = EDGE_LOOP ( 'NONE', ( #233, #227 ) ) ;
#21 = PERSON ( 'UNSPECIFIED', 'UNSPECIFIED', 'UNSPECIFIED', ('UNSPECIFIED'), ('UNSPECIFIED'), ('UNSPECIFIED') ) ;
#22 = DATE_AND_TIME ( #171, #133 ) ;
#23 = AXIS2_PLACEMENT_3D ( 'NONE', #50, #113, #10 ) ;
#24 = DIRECTION ( 'NONE',  ( -1.000000000000000000, -0.000000000000000000, -0.000000000000000000 ) ) ;
#25 = ADVANCED_FACE ( 'NONE', ( #92 ), #112, .T. ) ;
#26 = LINE ( 'NONE', #213, #237 ) ;
#27 = PRODUCT_DEFINITION_SHAPE ( 'NONE', 'NONE',  #200 ) ;
#28 = CARTESIAN_POINT ( 'NONE',  ( 12.00000000000000178, 0.000000000000000000, 0.000000000000000000 ) ) ;
#29 = CIRCLE ( 'NONE', #194, 0.4900000000000113709 ) ;
#30 = AXIS2_PLACEMENT_3D ( 'NONE', #202, #95, #246 ) ;
#31 = DIRECTION ( 'NONE',  ( 1.000000000000000000, -0.000000000000000000, -0.000000000000000000 ) ) ;
#32 = DIRECTION ( 'NONE',  ( 1.000000000000000000, 0.000000000000000000, 0.000000000000000000 ) ) ;
#33 = CARTESIAN_POINT ( 'NONE',  ( 11.99000000000001265, 6.123233995736764803E-17, -0.5000000000000000000 ) ) ;
#34 = CYLINDRICAL_SURFACE ( 'NONE', #61, 0.5000000000000000000 ) ;
#35 = CC_DESIGN_SECURITY_CLASSIFICATION ( #162, ( #239 ) ) ;
#36 = EDGE_CURVE ( 'NONE', #146, #56, #238, .T. ) ;
#37 = PERSON_AND_ORGANIZATION ( #21, #168 ) ;
#38 = PERSON_AND_ORGANIZATION ( #21, #168 ) ;
#39 = ORIENTED_EDGE ( 'NONE', *, *, #114, .F. ) ;
#40 = PERSON_AND_ORGANIZATION_ROLE ( 'classification_officer' ) ;
#41 = ADVANCED_FACE ( 'NONE', ( #210 ), #199, .F. ) ;
#42 = PERSON_AND_ORGANIZATION ( #21, #168 ) ;
#43 = ORIENTED_EDGE ( 'NONE', *, *, #114, .T. ) ;
#44 = ORIENTED_EDGE ( 'NONE', *, *, #166, .T. ) ;
#45 = CARTESIAN_POINT ( 'NONE',  ( -11.98999999999998067, 0.000000000000000000, 0.000000000000000000 ) ) ;
#46 = LINE ( 'NONE', #217, #74 ) ;
#47 = DIRECTION ( 'NONE',  ( 0.000000000000000000, 0.000000000000000000, -1.000000000000000000 ) ) ;
#48 = CIRCLE ( 'NONE', #174, 0.4899999999999807843 ) ;
#49 = EDGE_CURVE ( 'NONE', #169, #146, #46, .T. ) ;
#50 = CARTESIAN_POINT ( 'NONE',  ( -11.98999999999998067, 0.000000000000000000, 0.000000000000000000 ) ) ;
#51 = CALENDAR_DATE ( 2023, 7, 6 ) ;
#52 = PERSON_AND_ORGANIZATION_ROLE ( 'creator' ) ;
#53 = EDGE_CURVE ( 'NONE', #108, #169, #29, .T. ) ;
#54 = PERSON_AND_ORGANIZATION ( #21, #168 ) ;
#55 = VECTOR ( 'NONE', #243, 39.37007874015748143 ) ;
#56 = VERTEX_POINT ( 'NONE', #9 ) ;
#57 = ORIENTED_EDGE ( 'NONE', *, *, #101, .F. ) ;
#58 = ORIENTED_EDGE ( 'NONE', *, *, #36, .F. ) ;
#59 = EDGE_CURVE ( 'NONE', #126, #56, #26, .T. ) ;
#60 = APPROVAL_DATE_TIME ( #124, #80 ) ;
#61 = AXIS2_PLACEMENT_3D ( 'NONE', #159, #137, #14 ) ;
#62 = ORIENTED_EDGE ( 'NONE', *, *, #156, .F. ) ;
#63 = LOCAL_TIME ( 8, 31, 23.00000000000000000, #188 ) ;
#64 = ORIENTED_EDGE ( 'NONE', *, *, #59, .F. ) ;
#65 = APPROVAL ( #248, 'UNSPECIFIED' ) ;
#66 = FACE_OUTER_BOUND ( 'NONE', #102, .T. ) ;
#67 = CARTESIAN_POINT ( 'NONE',  ( 12.00000000000000178, 0.000000000000000000, 0.000000000000000000 ) ) ;
#68 = AXIS2_PLACEMENT_3D ( 'NONE', #67, #32, #132 ) ;
#69 = CARTESIAN_POINT ( 'NONE',  ( -12.00000000000000178, 0.000000000000000000, 0.000000000000000000 ) ) ;
#70 = DIRECTION ( 'NONE',  ( 0.000000000000000000, 0.000000000000000000, -1.000000000000000000 ) ) ;
#71 = EDGE_CURVE ( 'NONE', #228, #126, #48, .T. ) ;
#72 = DIRECTION ( 'NONE',  ( 0.000000000000000000, 0.000000000000000000, -1.000000000000000000 ) ) ;
#73 = MANIFOLD_SOLID_BREP ( 'Chamfer1', #107 ) ;
#74 = VECTOR ( 'NONE', #94, 39.37007874015748143 ) ;
#75 = PERSON_AND_ORGANIZATION_ROLE ( 'design_owner' ) ;
#76 = COORDINATED_UNIVERSAL_TIME_OFFSET ( 5, 0, .BEHIND. ) ;
#77 = PERSON_AND_ORGANIZATION ( #21, #168 ) ;
#78 = AXIS2_PLACEMENT_3D ( 'NONE', #198, #5, #262 ) ;
#79 = DATE_AND_TIME ( #51, #82 ) ;
#80 = APPROVAL ( #226, 'UNSPECIFIED' ) ;
#81 = DATE_TIME_ROLE ( 'classification_date' ) ;
#82 = LOCAL_TIME ( 8, 31, 23.00000000000000000, #117 ) ;
#83 = EDGE_CURVE ( 'NONE', #126, #228, #244, .T. ) ;
#84 = APPROVAL_STATUS ( 'not_yet_approved' ) ;
#85 = ORIENTED_EDGE ( 'NONE', *, *, #53, .F. ) ;
#86 = AXIS2_PLACEMENT_3D ( 'NONE', #139, #184, #224 ) ;
#87 = ORIENTED_EDGE ( 'NONE', *, *, #71, .F. ) ;
#88 = EDGE_LOOP ( 'NONE', ( #85, #144, #57, #205 ) ) ;
#89 = CARTESIAN_POINT ( 'NONE',  ( -12.00000000000000178, 0.000000000000000000, 0.000000000000000000 ) ) ;
#90 = DIRECTION ( 'NONE',  ( 0.000000000000000000, 0.000000000000000000, -1.000000000000000000 ) ) ;
#91 = VECTOR ( 'NONE', #93, 39.37007874015748143 ) ;
#92 = FACE_OUTER_BOUND ( 'NONE', #106, .T. ) ;
#93 = DIRECTION ( 'NONE',  ( -1.000000000000000000, -0.000000000000000000, -0.000000000000000000 ) ) ;
#94 = DIRECTION ( 'NONE',  ( -0.7071067811865305863, 0.000000000000000000, 0.7071067811865644481 ) ) ;
#95 = DIRECTION ( 'NONE',  ( 1.000000000000000000, -0.000000000000000000, -0.000000000000000000 ) ) ;
#96 = APPROVAL_ROLE ( '' ) ;
#97 = CARTESIAN_POINT ( 'NONE',  ( 12.00000000000000178, 6.000769315822170270E-17, -0.4900000000000113709 ) ) ;
#98 = CONICAL_SURFACE ( 'NONE', #119, 0.5000000000000000000, 0.7853981633973630139 ) ;
#99 = AXIS2_PLACEMENT_3D ( 'NONE', #7, #219, #222 ) ;
#100 = DIRECTION ( 'NONE',  ( 1.000000000000000000, 0.000000000000000000, 0.000000000000000000 ) ) ;
#101 = EDGE_CURVE ( 'NONE', #146, #256, #185, .T. ) ;
#102 = EDGE_LOOP ( 'NONE', ( #64, #87, #43, #62 ) ) ;
#103 = CC_DESIGN_DATE_AND_TIME_ASSIGNMENT ( #232, #81, ( #162 ) ) ;
#104 = PERSON_AND_ORGANIZATION ( #21, #168 ) ;
#105 = EDGE_CURVE ( 'NONE', #169, #108, #189, .T. ) ;
#106 = EDGE_LOOP ( 'NONE', ( #172, #149, #225, #258 ) ) ;
#107 = CLOSED_SHELL ( 'NONE', ( #241, #190, #250, #25, #122, #41, #111, #173 ) ) ;
#108 = VERTEX_POINT ( 'NONE', #152 ) ;
#109 = FACE_OUTER_BOUND ( 'NONE', #207, .T. ) ;
#110 = CARTESIAN_POINT ( 'NONE',  ( 11.99000000000001265, 0.000000000000000000, 0.000000000000000000 ) ) ;
#111 = ADVANCED_FACE ( 'NONE', ( #109 ), #214, .T. ) ;
#112 = CYLINDRICAL_SURFACE ( 'NONE', #115, 0.5000000000000000000 ) ;
#113 = DIRECTION ( 'NONE',  ( 1.000000000000000000, -0.000000000000000000, -0.000000000000000000 ) ) ;
#114 = EDGE_CURVE ( 'NONE', #228, #257, #155, .T. ) ;
#115 = AXIS2_PLACEMENT_3D ( 'NONE', #180, #261, #154 ) ;
#116 = DIRECTION ( 'NONE',  ( -0.7071067811865305863, 8.659560562355139934E-17, -0.7071067811865644481 ) ) ;
#117 = COORDINATED_UNIVERSAL_TIME_OFFSET ( 5, 0, .BEHIND. ) ;
#118 = MECHANICAL_CONTEXT ( 'NONE', #270, 'mechanical' ) ;
#119 = AXIS2_PLACEMENT_3D ( 'NONE', #45, #128, #197 ) ;
#120 = LOCAL_TIME ( 8, 31, 23.00000000000000000, #148 ) ;
#121 = CALENDAR_DATE ( 2023, 7, 6 ) ;
#122 = ADVANCED_FACE ( 'NONE', ( #182 ), #201, .T. ) ;
#123 = ORIENTED_EDGE ( 'NONE', *, *, #166, .F. ) ;
#124 = DATE_AND_TIME ( #121, #63 ) ;
#125 = CALENDAR_DATE ( 2023, 7, 6 ) ;
#126 = VERTEX_POINT ( 'NONE', #265 ) ;
#127 = AXIS2_PLACEMENT_3D ( 'NONE', #110, #212, #90 ) ;
#128 = DIRECTION ( 'NONE',  ( 1.000000000000000000, -0.000000000000000000, -0.000000000000000000 ) ) ;
#129 = DIRECTION ( 'NONE',  ( 0.000000000000000000, 0.000000000000000000, -1.000000000000000000 ) ) ;
#130 = CARTESIAN_POINT ( 'NONE',  ( 12.00000000000000178, 0.000000000000000000, 0.5000000000000000000 ) ) ;
#131 = APPROVAL ( #84, 'UNSPECIFIED' ) ;
#132 = DIRECTION ( 'NONE',  ( 0.000000000000000000, 0.000000000000000000, -1.000000000000000000 ) ) ;
#133 = LOCAL_TIME ( 8, 31, 23.00000000000000000, #167 ) ;
#134 = CARTESIAN_POINT ( 'NONE',  ( 12.00000000000000178, 0.000000000000000000, 0.4900000000000113709 ) ) ;
#135 = CARTESIAN_POINT ( 'NONE',  ( 0.000000000000000000, 0.000000000000000000, 0.000000000000000000 ) ) ;
#136 = DESIGN_CONTEXT ( 'detailed design', #160, 'design' ) ;
#137 = DIRECTION ( 'NONE',  ( -1.000000000000000000, -0.000000000000000000, -0.000000000000000000 ) ) ;
#138 = APPROVAL_PERSON_ORGANIZATION ( #37, #80, #2 ) ;
#139 = CARTESIAN_POINT ( 'NONE',  ( 11.99000000000001265, 0.000000000000000000, 0.000000000000000000 ) ) ;
#140 = CC_DESIGN_PERSON_AND_ORGANIZATION_ASSIGNMENT ( #77, #75, ( #196 ) ) ;
#141 = FACE_OUTER_BOUND ( 'NONE', #142, .T. ) ;
#142 = EDGE_LOOP ( 'NONE', ( #278, #254, #123, #39 ) ) ;
#143 = APPROVAL_DATE_TIME ( #22, #131 ) ;
#144 = ORIENTED_EDGE ( 'NONE', *, *, #203, .T. ) ;
#145 = CALENDAR_DATE ( 2023, 7, 6 ) ;
#146 = VERTEX_POINT ( 'NONE', #245 ) ;
#147 = VECTOR ( 'NONE', #116, 39.37007874015748143 ) ;
#148 = COORDINATED_UNIVERSAL_TIME_OFFSET ( 5, 0, .BEHIND. ) ;
#149 = ORIENTED_EDGE ( 'NONE', *, *, #259, .T. ) ;
#150 = CC_DESIGN_PERSON_AND_ORGANIZATION_ASSIGNMENT ( #163, #52, ( #200 ) ) ;
#151 = ORIENTED_EDGE ( 'NONE', *, *, #49, .T. ) ;
#152 = CARTESIAN_POINT ( 'NONE',  ( 12.00000000000000178, 6.062001655779467536E-17, -0.4900000000000113709 ) ) ;
#153 = FACE_OUTER_BOUND ( 'NONE', #88, .T. ) ;
#154 = DIRECTION ( 'NONE',  ( 0.000000000000000000, 0.000000000000000000, 1.000000000000000000 ) ) ;
#155 = LINE ( 'NONE', #178, #55 ) ;
#156 = EDGE_CURVE ( 'NONE', #56, #257, #220, .T. ) ;
#157 = DIRECTION ( 'NONE',  ( 1.000000000000000000, 0.000000000000000000, 0.000000000000000000 ) ) ;
#158 =( LENGTH_UNIT ( ) NAMED_UNIT ( * ) SI_UNIT ( $, .METRE. ) );
#159 = CARTESIAN_POINT ( 'NONE',  ( 12.00000000000000178, 0.000000000000000000, 0.000000000000000000 ) ) ;
#160 = APPLICATION_CONTEXT ( 'configuration controlled 3d designs of mechanical parts and assemblies' ) ;
#161 = LENGTH_MEASURE_WITH_UNIT ( LENGTH_MEASURE( 0.02539999999999999897 ), #158 );
#162 = SECURITY_CLASSIFICATION ( '', '', #16 ) ;
#163 = PERSON_AND_ORGANIZATION ( #21, #168 ) ;
#164 = CC_DESIGN_PERSON_AND_ORGANIZATION_ASSIGNMENT ( #104, #40, ( #162 ) ) ;
#165 = APPLICATION_PROTOCOL_DEFINITION ( 'international standard', 'config_control_design', 1994, #270 ) ;
#166 = EDGE_CURVE ( 'NONE', #257, #56, #8, .T. ) ;
#167 = COORDINATED_UNIVERSAL_TIME_OFFSET ( 5, 0, .BEHIND. ) ;
#168 = ORGANIZATION ( 'UNSPECIFIED', 'UNSPECIFIED', '' ) ;
#169 = VERTEX_POINT ( 'NONE', #134 ) ;
#170 = DIMENSIONAL_EXPONENTS ( 1.000000000000000000, 0.000000000000000000, 0.000000000000000000, 0.000000000000000000, 0.000000000000000000, 0.000000000000000000, 0.000000000000000000 ) ;
#171 = CALENDAR_DATE ( 2023, 7, 6 ) ;
#172 = ORIENTED_EDGE ( 'NONE', *, *, #267, .F. ) ;
#173 = ADVANCED_FACE ( 'NONE', ( #66 ), #98, .T. ) ;
#174 = AXIS2_PLACEMENT_3D ( 'NONE', #89, #263, #47 ) ;
#175 = PERSON_AND_ORGANIZATION ( #21, #168 ) ;
#176 = ORIENTED_EDGE ( 'NONE', *, *, #267, .T. ) ;
#177 = CARTESIAN_POINT ( 'NONE',  ( 12.00000000000000178, 0.000000000000000000, 0.000000000000000000 ) ) ;
#178 = CARTESIAN_POINT ( 'NONE',  ( -11.98999999999998067, 0.000000000000000000, -0.5000000000000000000 ) ) ;
#179 = AXIS2_PLACEMENT_3D ( 'NONE', #69, #24, #6 ) ;
#180 = CARTESIAN_POINT ( 'NONE',  ( 12.00000000000000178, 0.000000000000000000, 0.000000000000000000 ) ) ;
#181 = CARTESIAN_POINT ( 'NONE',  ( -12.00000000000000178, 0.000000000000000000, 0.000000000000000000 ) ) ;
#182 = FACE_OUTER_BOUND ( 'NONE', #234, .T. ) ;
#183 = FACE_OUTER_BOUND ( 'NONE', #209, .T. ) ;
#184 = DIRECTION ( 'NONE',  ( -1.000000000000000000, 0.000000000000000000, 0.000000000000000000 ) ) ;
#185 = CIRCLE ( 'NONE', #127, 0.5000000000000000000 ) ;
#186 = APPLICATION_PROTOCOL_DEFINITION ( 'international standard', 'config_control_design', 1994, #160 ) ;
#187 = CIRCLE ( 'NONE', #86, 0.5000000000000000000 ) ;
#188 = COORDINATED_UNIVERSAL_TIME_OFFSET ( 5, 0, .BEHIND. ) ;
#189 = CIRCLE ( 'NONE', #223, 0.4900000000000113709 ) ;
#190 = ADVANCED_FACE ( 'NONE', ( #153 ), #15, .T. ) ;
#191 = PERSON_AND_ORGANIZATION_ROLE ( 'design_supplier' ) ;
#192 = APPROVAL_ROLE ( '' ) ;
#193 = ORIENTED_EDGE ( 'NONE', *, *, #259, .F. ) ;
#194 = AXIS2_PLACEMENT_3D ( 'NONE', #177, #157, #129 ) ;
#195 = DIRECTION ( 'NONE',  ( 0.000000000000000000, 0.000000000000000000, -1.000000000000000000 ) ) ;
#196 = PRODUCT ( 'NIL16SS-024.000-SL', 'NIL16SS-024.000-SL', '', ( #118 ) ) ;
#197 = DIRECTION ( 'NONE',  ( 0.000000000000000000, 0.000000000000000000, -1.000000000000000000 ) ) ;
#198 = CARTESIAN_POINT ( 'NONE',  ( 12.00000000000000178, 0.000000000000000000, 0.000000000000000000 ) ) ;
#199 = PLANE ( 'NONE',  #272 ) ;
#200 = PRODUCT_DEFINITION ( 'UNKNOWN', '', #239, #136 ) ;
#201 = PLANE ( 'NONE',  #68 ) ;
#202 = CARTESIAN_POINT ( 'NONE',  ( -11.98999999999998067, 0.000000000000000000, 0.000000000000000000 ) ) ;
#203 = EDGE_CURVE ( 'NONE', #108, #256, #268, .T. ) ;
#204 = ORIENTED_EDGE ( 'NONE', *, *, #105, .T. ) ;
#205 = ORIENTED_EDGE ( 'NONE', *, *, #49, .F. ) ;
#206 = AXIS2_PLACEMENT_3D ( 'NONE', #215, #31, #72 ) ;
#207 = EDGE_LOOP ( 'NONE', ( #19, #275, #151, #193 ) ) ;
#208 = PRODUCT_RELATED_PRODUCT_CATEGORY ( 'detail', '', ( #196 ) ) ;
#209 = EDGE_LOOP ( 'NONE', ( #3, #176, #44, #58 ) ) ;
#210 = FACE_OUTER_BOUND ( 'NONE', #20, .T. ) ;
#211 = CC_DESIGN_APPROVAL ( #131, ( #162 ) ) ;
#212 = DIRECTION ( 'NONE',  ( -1.000000000000000000, 0.000000000000000000, 0.000000000000000000 ) ) ;
#213 = CARTESIAN_POINT ( 'NONE',  ( -11.98999999999998067, 6.123233995736766036E-17, 0.5000000000000000000 ) ) ;
#214 = CONICAL_SURFACE ( 'NONE', #78, 0.4900000000000113709, 0.7853981633974722598 ) ;
#215 = CARTESIAN_POINT ( 'NONE',  ( -11.98999999999998067, 0.000000000000000000, 0.000000000000000000 ) ) ;
#216 = CC_DESIGN_PERSON_AND_ORGANIZATION_ASSIGNMENT ( #38, #252, ( #239 ) ) ;
#217 = CARTESIAN_POINT ( 'NONE',  ( 12.00000000000000178, 0.000000000000000000, 0.4900000000000113709 ) ) ;
#218 = UNCERTAINTY_MEASURE_WITH_UNIT (LENGTH_MEASURE( 1.000000000000000082E-05 ), #249, 'distance_accuracy_value', 'NONE');
#219 = DIRECTION ( 'NONE',  ( -1.000000000000000000, 0.000000000000000000, 0.000000000000000000 ) ) ;
#220 = CIRCLE ( 'NONE', #206, 0.5000000000000000000 ) ;
#221 = DIRECTION ( 'NONE',  ( -1.000000000000000000, -0.000000000000000000, -0.000000000000000000 ) ) ;
#222 = DIRECTION ( 'NONE',  ( 0.000000000000000000, 0.000000000000000000, 1.000000000000000000 ) ) ;
#223 = AXIS2_PLACEMENT_3D ( 'NONE', #28, #264, #70 ) ;
#224 = DIRECTION ( 'NONE',  ( 0.000000000000000000, 0.000000000000000000, -1.000000000000000000 ) ) ;
#225 = ORIENTED_EDGE ( 'NONE', *, *, #36, .T. ) ;
#226 = APPROVAL_STATUS ( 'not_yet_approved' ) ;
#227 = ORIENTED_EDGE ( 'NONE', *, *, #83, .T. ) ;
#228 = VERTEX_POINT ( 'NONE', #273 ) ;
#229 = CONICAL_SURFACE ( 'NONE', #30, 0.5000000000000000000, 0.7853981633973630139 ) ;
#230 = CC_DESIGN_PERSON_AND_ORGANIZATION_ASSIGNMENT ( #175, #191, ( #239 ) ) ;
#231 = CC_DESIGN_APPROVAL ( #80, ( #239 ) ) ;
#232 = DATE_AND_TIME ( #145, #120 ) ;
#233 = ORIENTED_EDGE ( 'NONE', *, *, #71, .T. ) ;
#234 = EDGE_LOOP ( 'NONE', ( #204, #17 ) ) ;
#235 = DIRECTION ( 'NONE',  ( 1.000000000000000000, 0.000000000000000000, 0.000000000000000000 ) ) ;
#236 = CC_DESIGN_APPROVAL ( #65, ( #200 ) ) ;
#237 = VECTOR ( 'NONE', #240, 39.37007874015748143 ) ;
#238 = LINE ( 'NONE', #130, #91 ) ;
#239 = PRODUCT_DEFINITION_FORMATION_WITH_SPECIFIED_SOURCE ( 'ANY', '', #196, .NOT_KNOWN. ) ;
#240 = DIRECTION ( 'NONE',  ( 0.7071067811866079689, 8.659560562354194534E-17, 0.7071067811864871766 ) ) ;
#241 = ADVANCED_FACE ( 'NONE', ( #141 ), #229, .T. ) ;
#242 =( GEOMETRIC_REPRESENTATION_CONTEXT ( 3 ) GLOBAL_UNCERTAINTY_ASSIGNED_CONTEXT ( ( #218 ) ) GLOBAL_UNIT_ASSIGNED_CONTEXT ( ( #249, #271, #12 ) ) REPRESENTATION_CONTEXT ( 'NONE', 'WORKASPACE' ) );
#243 = DIRECTION ( 'NONE',  ( 0.7071067811866079689, 0.000000000000000000, -0.7071067811864871766 ) ) ;
#244 = CIRCLE ( 'NONE', #179, 0.4899999999999807843 ) ;
#245 = CARTESIAN_POINT ( 'NONE',  ( 11.99000000000001265, 0.000000000000000000, 0.5000000000000000000 ) ) ;
#246 = DIRECTION ( 'NONE',  ( 0.000000000000000000, 0.000000000000000000, -1.000000000000000000 ) ) ;
#247 = CARTESIAN_POINT ( 'NONE',  ( 12.00000000000000178, 6.123233995736764803E-17, -0.5000000000000000000 ) ) ;
#248 = APPROVAL_STATUS ( 'not_yet_approved' ) ;
#249 =( CONVERSION_BASED_UNIT ( 'INCH', #161 ) LENGTH_UNIT ( ) NAMED_UNIT ( #170 ) );
#250 = ADVANCED_FACE ( 'NONE', ( #183 ), #34, .T. ) ;
#251 = CARTESIAN_POINT ( 'NONE',  ( -11.98999999999998067, 6.123233995736764803E-17, -0.5000000000000000000 ) ) ;
#252 = PERSON_AND_ORGANIZATION_ROLE ( 'creator' ) ;
#253 = ADVANCED_BREP_SHAPE_REPRESENTATION ( 'NIL16SS-024.000-SL', ( #73, #18 ), #242 ) ;
#254 = ORIENTED_EDGE ( 'NONE', *, *, #59, .T. ) ;
#255 = SHAPE_DEFINITION_REPRESENTATION ( #27, #253 ) ;
#256 = VERTEX_POINT ( 'NONE', #33 ) ;
#257 = VERTEX_POINT ( 'NONE', #251 ) ;
#258 = ORIENTED_EDGE ( 'NONE', *, *, #156, .T. ) ;
#259 = EDGE_CURVE ( 'NONE', #256, #146, #187, .T. ) ;
#260 = APPROVAL_PERSON_ORGANIZATION ( #42, #131, #192 ) ;
#261 = DIRECTION ( 'NONE',  ( -1.000000000000000000, -0.000000000000000000, -0.000000000000000000 ) ) ;
#262 = DIRECTION ( 'NONE',  ( 0.000000000000000000, 0.000000000000000000, 1.000000000000000000 ) ) ;
#263 = DIRECTION ( 'NONE',  ( -1.000000000000000000, -0.000000000000000000, -0.000000000000000000 ) ) ;
#264 = DIRECTION ( 'NONE',  ( 1.000000000000000000, 0.000000000000000000, 0.000000000000000000 ) ) ;
#265 = CARTESIAN_POINT ( 'NONE',  ( -12.00000000000000178, 6.062001655779280182E-17, 0.4899999999999807843 ) ) ;
#266 = APPROVAL_PERSON_ORGANIZATION ( #54, #65, #96 ) ;
#267 = EDGE_CURVE ( 'NONE', #256, #257, #13, .T. ) ;
#268 = LINE ( 'NONE', #97, #147 ) ;
#269 = APPROVAL_DATE_TIME ( #79, #65 ) ;
#270 = APPLICATION_CONTEXT ( 'configuration controlled 3d designs of mechanical parts and assemblies' ) ;
#271 =( NAMED_UNIT ( * ) PLANE_ANGLE_UNIT ( ) SI_UNIT ( $, .RADIAN. ) );
#272 = AXIS2_PLACEMENT_3D ( 'NONE', #181, #235, #195 ) ;
#273 = CARTESIAN_POINT ( 'NONE',  ( -12.00000000000000178, 0.000000000000000000, -0.4899999999999807843 ) ) ;
#274 = DATE_AND_TIME ( #125, #276 ) ;
#275 = ORIENTED_EDGE ( 'NONE', *, *, #105, .F. ) ;
#276 = LOCAL_TIME ( 8, 31, 23.00000000000000000, #76 ) ;
#277 = DATE_TIME_ROLE ( 'creation_date' ) ;
#278 = ORIENTED_EDGE ( 'NONE', *, *, #83, .F. ) ;
ENDSEC;
END-ISO-10303-21;
