ISO-10303-21;
HEADER;
FILE_DESCRIPTION (( 'STEP AP203' ),
    '1' );
FILE_NAME ('NIL16SS-012.000-SL.step',
    '2023-06-07T12:31:18',
    ( '' ),
    ( '' ),
    'SwSTEP 2.0',
    'SolidWorks 2021',
    '' );
FILE_SCHEMA (( 'CONFIG_CONTROL_DESIGN' ));
ENDSEC;

DATA;
#1 = ORIENTED_EDGE ( 'NONE', *, *, #161, .T. ) ;
#2 = LOCAL_TIME ( 8, 31, 18.00000000000000000, #23 ) ;
#3 = CARTESIAN_POINT ( 'NONE',  ( -6.000000000000000888, 6.062001655779340579E-17, 0.4899999999999906097 ) ) ;
#4 = APPROVAL_DATE_TIME ( #260, #202 ) ;
#5 = ORIENTED_EDGE ( 'NONE', *, *, #190, .F. ) ;
#6 = CIRCLE ( 'NONE', #13, 0.5000000000000000000 ) ;
#7 = VERTEX_POINT ( 'NONE', #181 ) ;
#8 = LOCAL_TIME ( 8, 31, 18.00000000000000000, #241 ) ;
#9 = CARTESIAN_POINT ( 'NONE',  ( -5.989999999999990443, 0.000000000000000000, 0.000000000000000000 ) ) ;
#10 = AXIS2_PLACEMENT_3D ( 'NONE', #132, #107, #41 ) ;
#11 = CARTESIAN_POINT ( 'NONE',  ( -6.000000000000000888, 0.000000000000000000, 0.000000000000000000 ) ) ;
#12 = DIRECTION ( 'NONE',  ( -0.7071067811865692221, 0.000000000000000000, 0.7071067811865257013 ) ) ;
#13 = AXIS2_PLACEMENT_3D ( 'NONE', #247, #61, #123 ) ;
#14 = DIRECTION ( 'NONE',  ( 0.7071067811865692221, 0.000000000000000000, -0.7071067811865257013 ) ) ;
#15 = DIRECTION ( 'NONE',  ( 0.000000000000000000, 0.000000000000000000, -1.000000000000000000 ) ) ;
#16 = APPLICATION_CONTEXT ( 'configuration controlled 3d designs of mechanical parts and assemblies' ) ;
#17 = CYLINDRICAL_SURFACE ( 'NONE', #115, 0.5000000000000000000 ) ;
#18 = PERSON_AND_ORGANIZATION ( #200, #206 ) ;
#19 = PERSON_AND_ORGANIZATION ( #200, #206 ) ;
#20 = DIRECTION ( 'NONE',  ( 0.000000000000000000, 0.000000000000000000, 1.000000000000000000 ) ) ;
#21 = CIRCLE ( 'NONE', #65, 0.4899999999999906097 ) ;
#22 = ADVANCED_FACE ( 'NONE', ( #158 ), #174, .T. ) ;
#23 = COORDINATED_UNIVERSAL_TIME_OFFSET ( 5, 0, .BEHIND. ) ;
#24 = ORIENTED_EDGE ( 'NONE', *, *, #87, .F. ) ;
#25 = EDGE_CURVE ( 'NONE', #262, #91, #141, .T. ) ;
#26 = ORIENTED_EDGE ( 'NONE', *, *, #201, .T. ) ;
#27 = COORDINATED_UNIVERSAL_TIME_OFFSET ( 5, 0, .BEHIND. ) ;
#28 = VERTEX_POINT ( 'NONE', #3 ) ;
#29 = EDGE_LOOP ( 'NONE', ( #93, #221, #1, #265 ) ) ;
#30 = DIRECTION ( 'NONE',  ( 0.000000000000000000, 0.000000000000000000, 1.000000000000000000 ) ) ;
#31 = ADVANCED_FACE ( 'NONE', ( #269 ), #179, .T. ) ;
#32 = FACE_OUTER_BOUND ( 'NONE', #261, .T. ) ;
#33 = AXIS2_PLACEMENT_3D ( 'NONE', #9, #147, #97 ) ;
#34 = UNCERTAINTY_MEASURE_WITH_UNIT (LENGTH_MEASURE( 1.000000000000000082E-05 ), #84, 'distance_accuracy_value', 'NONE');
#35 = LINE ( 'NONE', #208, #62 ) ;
#36 = EDGE_CURVE ( 'NONE', #95, #73, #99, .T. ) ;
#37 = DIRECTION ( 'NONE',  ( 1.000000000000000000, 0.000000000000000000, 0.000000000000000000 ) ) ;
#38 = LINE ( 'NONE', #205, #209 ) ;
#39 = APPROVAL_PERSON_ORGANIZATION ( #254, #51, #253 ) ;
#40 = ADVANCED_BREP_SHAPE_REPRESENTATION ( 'NIL16SS-012.000-SL', ( #237, #10 ), #224 ) ;
#41 = DIRECTION ( 'NONE',  ( 1.000000000000000000, 0.000000000000000000, 0.000000000000000000 ) ) ;
#42 =( NAMED_UNIT ( * ) PLANE_ANGLE_UNIT ( ) SI_UNIT ( $, .RADIAN. ) );
#43 = CC_DESIGN_DATE_AND_TIME_ASSIGNMENT ( #192, #118, ( #60 ) ) ;
#44 = PRODUCT_DEFINITION_FORMATION_WITH_SPECIFIED_SOURCE ( 'ANY', '', #120, .NOT_KNOWN. ) ;
#45 = PERSON_AND_ORGANIZATION_ROLE ( 'creator' ) ;
#46 = APPROVAL_STATUS ( 'not_yet_approved' ) ;
#47 = DIRECTION ( 'NONE',  ( -1.000000000000000000, -0.000000000000000000, -0.000000000000000000 ) ) ;
#48 = LOCAL_TIME ( 8, 31, 18.00000000000000000, #27 ) ;
#49 = CALENDAR_DATE ( 2023, 7, 6 ) ;
#50 = DIRECTION ( 'NONE',  ( 0.000000000000000000, 0.000000000000000000, 1.000000000000000000 ) ) ;
#51 = APPROVAL ( #46, 'UNSPECIFIED' ) ;
#52 = ORIENTED_EDGE ( 'NONE', *, *, #25, .T. ) ;
#53 = CALENDAR_DATE ( 2023, 7, 6 ) ;
#54 = ORIENTED_EDGE ( 'NONE', *, *, #190, .T. ) ;
#55 = DIRECTION ( 'NONE',  ( 1.000000000000000000, -0.000000000000000000, -0.000000000000000000 ) ) ;
#56 = EDGE_CURVE ( 'NONE', #109, #7, #272, .T. ) ;
#57 = CC_DESIGN_DATE_AND_TIME_ASSIGNMENT ( #216, #256, ( #263 ) ) ;
#58 = CONICAL_SURFACE ( 'NONE', #125, 0.5000000000000000000, 0.7853981633974175258 ) ;
#59 = CARTESIAN_POINT ( 'NONE',  ( -5.989999999999990443, 0.000000000000000000, 0.000000000000000000 ) ) ;
#60 = SECURITY_CLASSIFICATION ( '', '', #226 ) ;
#61 = DIRECTION ( 'NONE',  ( 1.000000000000000000, -0.000000000000000000, -0.000000000000000000 ) ) ;
#62 = VECTOR ( 'NONE', #12, 39.37007874015748854 ) ;
#63 = CARTESIAN_POINT ( 'NONE',  ( 5.990000000000003766, 0.000000000000000000, 0.5000000000000000000 ) ) ;
#64 = DIRECTION ( 'NONE',  ( 0.000000000000000000, 0.000000000000000000, -1.000000000000000000 ) ) ;
#65 = AXIS2_PLACEMENT_3D ( 'NONE', #266, #233, #124 ) ;
#66 = FACE_OUTER_BOUND ( 'NONE', #223, .T. ) ;
#67 = COORDINATED_UNIVERSAL_TIME_OFFSET ( 5, 0, .BEHIND. ) ;
#68 = CC_DESIGN_PERSON_AND_ORGANIZATION_ASSIGNMENT ( #19, #187, ( #120 ) ) ;
#69 = DIRECTION ( 'NONE',  ( -1.000000000000000000, 0.000000000000000000, 0.000000000000000000 ) ) ;
#70 = ORIENTED_EDGE ( 'NONE', *, *, #96, .T. ) ;
#71 = CIRCLE ( 'NONE', #139, 0.4899999999999906097 ) ;
#72 = PERSON_AND_ORGANIZATION ( #200, #206 ) ;
#73 = VERTEX_POINT ( 'NONE', #207 ) ;
#74 = SHAPE_DEFINITION_REPRESENTATION ( #131, #40 ) ;
#75 = ORIENTED_EDGE ( 'NONE', *, *, #36, .T. ) ;
#76 = EDGE_LOOP ( 'NONE', ( #144, #70, #177, #145 ) ) ;
#77 = ADVANCED_FACE ( 'NONE', ( #251 ), #180, .T. ) ;
#78 = ORIENTED_EDGE ( 'NONE', *, *, #236, .T. ) ;
#79 = CARTESIAN_POINT ( 'NONE',  ( -5.989999999999990443, 6.123233995736766036E-17, 0.5000000000000000000 ) ) ;
#80 = DIRECTION ( 'NONE',  ( 1.000000000000000000, 0.000000000000000000, 0.000000000000000000 ) ) ;
#81 = ADVANCED_FACE ( 'NONE', ( #32 ), #267, .T. ) ;
#82 = DIRECTION ( 'NONE',  ( 0.000000000000000000, 0.000000000000000000, -1.000000000000000000 ) ) ;
#83 = PLANE ( 'NONE',  #169 ) ;
#84 =( CONVERSION_BASED_UNIT ( 'INCH', #273 ) LENGTH_UNIT ( ) NAMED_UNIT ( #225 ) );
#85 = AXIS2_PLACEMENT_3D ( 'NONE', #98, #232, #30 ) ;
#86 = CARTESIAN_POINT ( 'NONE',  ( 6.000000000000000888, 0.000000000000000000, 0.000000000000000000 ) ) ;
#87 = EDGE_CURVE ( 'NONE', #7, #109, #121, .T. ) ;
#88 = DATE_AND_TIME ( #218, #163 ) ;
#89 = ORIENTED_EDGE ( 'NONE', *, *, #110, .T. ) ;
#90 = PERSON_AND_ORGANIZATION_ROLE ( 'creator' ) ;
#91 = VERTEX_POINT ( 'NONE', #211 ) ;
#92 = CC_DESIGN_PERSON_AND_ORGANIZATION_ASSIGNMENT ( #72, #90, ( #44 ) ) ;
#93 = ORIENTED_EDGE ( 'NONE', *, *, #96, .F. ) ;
#94 = PERSON_AND_ORGANIZATION_ROLE ( 'classification_officer' ) ;
#95 = VERTEX_POINT ( 'NONE', #63 ) ;
#96 = EDGE_CURVE ( 'NONE', #28, #73, #210, .T. ) ;
#97 = DIRECTION ( 'NONE',  ( 0.000000000000000000, 0.000000000000000000, -1.000000000000000000 ) ) ;
#98 = CARTESIAN_POINT ( 'NONE',  ( 6.000000000000000888, 0.000000000000000000, 0.000000000000000000 ) ) ;
#99 = LINE ( 'NONE', #183, #106 ) ;
#100 = DIRECTION ( 'NONE',  ( 0.000000000000000000, 0.000000000000000000, -1.000000000000000000 ) ) ;
#101 = DIRECTION ( 'NONE',  ( -1.000000000000000000, 0.000000000000000000, 0.000000000000000000 ) ) ;
#102 = EDGE_CURVE ( 'NONE', #109, #262, #184, .T. ) ;
#103 = ADVANCED_FACE ( 'NONE', ( #160 ), #83, .F. ) ;
#104 = APPROVAL_STATUS ( 'not_yet_approved' ) ;
#105 = AXIS2_PLACEMENT_3D ( 'NONE', #230, #101, #82 ) ;
#106 = VECTOR ( 'NONE', #149, 39.37007874015748143 ) ;
#107 = DIRECTION ( 'NONE',  ( 0.000000000000000000, 0.000000000000000000, 1.000000000000000000 ) ) ;
#108 = DATE_AND_TIME ( #243, #48 ) ;
#109 = VERTEX_POINT ( 'NONE', #150 ) ;
#110 = EDGE_CURVE ( 'NONE', #240, #28, #21, .T. ) ;
#111 = PERSON_AND_ORGANIZATION_ROLE ( 'design_supplier' ) ;
#112 = ORIENTED_EDGE ( 'NONE', *, *, #56, .T. ) ;
#113 = CLOSED_SHELL ( 'NONE', ( #31, #252, #255, #22, #81, #103, #77, #164 ) ) ;
#114 = CARTESIAN_POINT ( 'NONE',  ( 6.000000000000000888, 6.123233995736764803E-17, -0.5000000000000000000 ) ) ;
#115 = AXIS2_PLACEMENT_3D ( 'NONE', #166, #235, #191 ) ;
#116 = APPROVAL_ROLE ( '' ) ;
#117 = EDGE_LOOP ( 'NONE', ( #89, #198 ) ) ;
#118 = DATE_TIME_ROLE ( 'classification_date' ) ;
#119 = ORIENTED_EDGE ( 'NONE', *, *, #102, .T. ) ;
#120 = PRODUCT ( 'NIL16SS-012.000-SL', 'NIL16SS-012.000-SL', '', ( #212 ) ) ;
#121 = CIRCLE ( 'NONE', #171, 0.4900000000000037104 ) ;
#122 = DIRECTION ( 'NONE',  ( 0.000000000000000000, 0.000000000000000000, -1.000000000000000000 ) ) ;
#123 = DIRECTION ( 'NONE',  ( 0.000000000000000000, 0.000000000000000000, -1.000000000000000000 ) ) ;
#124 = DIRECTION ( 'NONE',  ( 0.000000000000000000, 0.000000000000000000, -1.000000000000000000 ) ) ;
#125 = AXIS2_PLACEMENT_3D ( 'NONE', #59, #130, #15 ) ;
#126 = VECTOR ( 'NONE', #197, 39.37007874015748143 ) ;
#127 = AXIS2_PLACEMENT_3D ( 'NONE', #146, #185, #122 ) ;
#128 = DIRECTION ( 'NONE',  ( -0.7071067811865692221, 8.659560562354665385E-17, -0.7071067811865257013 ) ) ;
#129 = CC_DESIGN_APPROVAL ( #154, ( #60 ) ) ;
#130 = DIRECTION ( 'NONE',  ( 1.000000000000000000, -0.000000000000000000, -0.000000000000000000 ) ) ;
#131 = PRODUCT_DEFINITION_SHAPE ( 'NONE', 'NONE',  #263 ) ;
#132 = CARTESIAN_POINT ( 'NONE',  ( 0.000000000000000000, 0.000000000000000000, 0.000000000000000000 ) ) ;
#133 =( NAMED_UNIT ( * ) SI_UNIT ( $, .STERADIAN. ) SOLID_ANGLE_UNIT ( ) );
#134 = CC_DESIGN_APPROVAL ( #202, ( #44 ) ) ;
#135 = AXIS2_PLACEMENT_3D ( 'NONE', #137, #153, #276 ) ;
#136 = CALENDAR_DATE ( 2023, 7, 6 ) ;
#137 = CARTESIAN_POINT ( 'NONE',  ( 5.990000000000003766, 0.000000000000000000, 0.000000000000000000 ) ) ;
#138 = ORIENTED_EDGE ( 'NONE', *, *, #102, .F. ) ;
#139 = AXIS2_PLACEMENT_3D ( 'NONE', #11, #186, #148 ) ;
#140 = PERSON_AND_ORGANIZATION ( #200, #206 ) ;
#141 = LINE ( 'NONE', #114, #126 ) ;
#142 = APPROVAL_STATUS ( 'not_yet_approved' ) ;
#143 = EDGE_CURVE ( 'NONE', #73, #91, #6, .T. ) ;
#144 = ORIENTED_EDGE ( 'NONE', *, *, #213, .F. ) ;
#145 = ORIENTED_EDGE ( 'NONE', *, *, #161, .F. ) ;
#146 = CARTESIAN_POINT ( 'NONE',  ( 6.000000000000000888, 0.000000000000000000, 0.000000000000000000 ) ) ;
#147 = DIRECTION ( 'NONE',  ( 1.000000000000000000, -0.000000000000000000, -0.000000000000000000 ) ) ;
#148 = DIRECTION ( 'NONE',  ( 0.000000000000000000, 0.000000000000000000, -1.000000000000000000 ) ) ;
#149 = DIRECTION ( 'NONE',  ( -1.000000000000000000, -0.000000000000000000, -0.000000000000000000 ) ) ;
#150 = CARTESIAN_POINT ( 'NONE',  ( 6.000000000000000888, 6.062001655779420698E-17, -0.4900000000000037104 ) ) ;
#151 = CC_DESIGN_PERSON_AND_ORGANIZATION_ASSIGNMENT ( #277, #111, ( #44 ) ) ;
#152 = APPLICATION_PROTOCOL_DEFINITION ( 'international standard', 'config_control_design', 1994, #16 ) ;
#153 = DIRECTION ( 'NONE',  ( -1.000000000000000000, 0.000000000000000000, 0.000000000000000000 ) ) ;
#154 = APPROVAL ( #142, 'UNSPECIFIED' ) ;
#155 = AXIS2_PLACEMENT_3D ( 'NONE', #165, #270, #271 ) ;
#156 = ORIENTED_EDGE ( 'NONE', *, *, #36, .F. ) ;
#157 = ORIENTED_EDGE ( 'NONE', *, *, #56, .F. ) ;
#158 = FACE_OUTER_BOUND ( 'NONE', #222, .T. ) ;
#159 = CARTESIAN_POINT ( 'NONE',  ( 6.000000000000000888, 0.000000000000000000, 0.000000000000000000 ) ) ;
#160 = FACE_OUTER_BOUND ( 'NONE', #117, .T. ) ;
#161 = EDGE_CURVE ( 'NONE', #240, #91, #38, .T. ) ;
#162 = CARTESIAN_POINT ( 'NONE',  ( 6.000000000000000888, 6.000769315822076592E-17, -0.4900000000000037104 ) ) ;
#163 = LOCAL_TIME ( 8, 31, 18.00000000000000000, #274 ) ;
#164 = ADVANCED_FACE ( 'NONE', ( #246 ), #58, .T. ) ;
#165 = CARTESIAN_POINT ( 'NONE',  ( 6.000000000000000888, 0.000000000000000000, 0.000000000000000000 ) ) ;
#166 = CARTESIAN_POINT ( 'NONE',  ( 6.000000000000000888, 0.000000000000000000, 0.000000000000000000 ) ) ;
#167 = CARTESIAN_POINT ( 'NONE',  ( 5.990000000000003766, 6.123233995736764803E-17, -0.5000000000000000000 ) ) ;
#168 =( LENGTH_UNIT ( ) NAMED_UNIT ( * ) SI_UNIT ( $, .METRE. ) );
#169 = AXIS2_PLACEMENT_3D ( 'NONE', #245, #37, #182 ) ;
#170 = APPROVAL_DATE_TIME ( #88, #51 ) ;
#171 = AXIS2_PLACEMENT_3D ( 'NONE', #159, #80, #64 ) ;
#172 = APPROVAL_PERSON_ORGANIZATION ( #194, #154, #116 ) ;
#173 = CIRCLE ( 'NONE', #105, 0.5000000000000000000 ) ;
#174 = CYLINDRICAL_SURFACE ( 'NONE', #275, 0.5000000000000000000 ) ;
#175 = VECTOR ( 'NONE', #229, 39.37007874015748854 ) ;
#176 = APPROVAL_PERSON_ORGANIZATION ( #18, #202, #189 ) ;
#177 = ORIENTED_EDGE ( 'NONE', *, *, #201, .F. ) ;
#178 = ORIENTED_EDGE ( 'NONE', *, *, #25, .F. ) ;
#179 = CONICAL_SURFACE ( 'NONE', #239, 0.5000000000000000000, 0.7853981633974175258 ) ;
#180 = CONICAL_SURFACE ( 'NONE', #85, 0.4900000000000037104, 0.7853981633974175258 ) ;
#181 = CARTESIAN_POINT ( 'NONE',  ( 6.000000000000000888, 0.000000000000000000, 0.4900000000000037104 ) ) ;
#182 = DIRECTION ( 'NONE',  ( 0.000000000000000000, 0.000000000000000000, -1.000000000000000000 ) ) ;
#183 = CARTESIAN_POINT ( 'NONE',  ( 6.000000000000000888, 0.000000000000000000, 0.5000000000000000000 ) ) ;
#184 = LINE ( 'NONE', #162, #268 ) ;
#185 = DIRECTION ( 'NONE',  ( 1.000000000000000000, 0.000000000000000000, 0.000000000000000000 ) ) ;
#186 = DIRECTION ( 'NONE',  ( -1.000000000000000000, -0.000000000000000000, -0.000000000000000000 ) ) ;
#187 = PERSON_AND_ORGANIZATION_ROLE ( 'design_owner' ) ;
#188 = CC_DESIGN_APPROVAL ( #51, ( #263 ) ) ;
#189 = APPROVAL_ROLE ( '' ) ;
#190 = EDGE_CURVE ( 'NONE', #95, #262, #173, .T. ) ;
#191 = DIRECTION ( 'NONE',  ( 0.000000000000000000, 0.000000000000000000, 1.000000000000000000 ) ) ;
#192 = DATE_AND_TIME ( #53, #2 ) ;
#193 = ORIENTED_EDGE ( 'NONE', *, *, #257, .F. ) ;
#194 = PERSON_AND_ORGANIZATION ( #200, #206 ) ;
#195 = EDGE_LOOP ( 'NONE', ( #138, #24, #78, #193 ) ) ;
#196 = APPROVAL_DATE_TIME ( #108, #154 ) ;
#197 = DIRECTION ( 'NONE',  ( -1.000000000000000000, -0.000000000000000000, -0.000000000000000000 ) ) ;
#198 = ORIENTED_EDGE ( 'NONE', *, *, #213, .T. ) ;
#199 = ORIENTED_EDGE ( 'NONE', *, *, #143, .T. ) ;
#200 = PERSON ( 'UNSPECIFIED', 'UNSPECIFIED', 'UNSPECIFIED', ('UNSPECIFIED'), ('UNSPECIFIED'), ('UNSPECIFIED') ) ;
#201 = EDGE_CURVE ( 'NONE', #91, #73, #264, .T. ) ;
#202 = APPROVAL ( #104, 'UNSPECIFIED' ) ;
#203 = PRODUCT_RELATED_PRODUCT_CATEGORY ( 'detail', '', ( #120 ) ) ;
#204 = CC_DESIGN_SECURITY_CLASSIFICATION ( #60, ( #44 ) ) ;
#205 = CARTESIAN_POINT ( 'NONE',  ( -5.989999999999990443, 0.000000000000000000, -0.5000000000000000000 ) ) ;
#206 = ORGANIZATION ( 'UNSPECIFIED', 'UNSPECIFIED', '' ) ;
#207 = CARTESIAN_POINT ( 'NONE',  ( -5.989999999999990443, 0.000000000000000000, 0.5000000000000000000 ) ) ;
#208 = CARTESIAN_POINT ( 'NONE',  ( 6.000000000000000888, 0.000000000000000000, 0.4900000000000037104 ) ) ;
#209 = VECTOR ( 'NONE', #14, 39.37007874015748854 ) ;
#210 = LINE ( 'NONE', #79, #175 ) ;
#211 = CARTESIAN_POINT ( 'NONE',  ( -5.989999999999990443, 6.123233995736764803E-17, -0.5000000000000000000 ) ) ;
#212 = MECHANICAL_CONTEXT ( 'NONE', #278, 'mechanical' ) ;
#213 = EDGE_CURVE ( 'NONE', #28, #240, #71, .T. ) ;
#214 = APPLICATION_PROTOCOL_DEFINITION ( 'international standard', 'config_control_design', 1994, #278 ) ;
#215 = CIRCLE ( 'NONE', #135, 0.5000000000000000000 ) ;
#216 = DATE_AND_TIME ( #136, #259 ) ;
#217 = CC_DESIGN_PERSON_AND_ORGANIZATION_ASSIGNMENT ( #238, #45, ( #263 ) ) ;
#218 = CALENDAR_DATE ( 2023, 7, 6 ) ;
#219 = CONICAL_SURFACE ( 'NONE', #248, 0.4900000000000037104, 0.7853981633974175258 ) ;
#220 = ORIENTED_EDGE ( 'NONE', *, *, #236, .F. ) ;
#221 = ORIENTED_EDGE ( 'NONE', *, *, #110, .F. ) ;
#222 = EDGE_LOOP ( 'NONE', ( #178, #258, #75, #199 ) ) ;
#223 = EDGE_LOOP ( 'NONE', ( #54, #52, #26, #156 ) ) ;
#224 =( GEOMETRIC_REPRESENTATION_CONTEXT ( 3 ) GLOBAL_UNCERTAINTY_ASSIGNED_CONTEXT ( ( #34 ) ) GLOBAL_UNIT_ASSIGNED_CONTEXT ( ( #84, #42, #133 ) ) REPRESENTATION_CONTEXT ( 'NONE', 'WORKASPACE' ) );
#225 = DIMENSIONAL_EXPONENTS ( 1.000000000000000000, 0.000000000000000000, 0.000000000000000000, 0.000000000000000000, 0.000000000000000000, 0.000000000000000000, 0.000000000000000000 ) ;
#226 = SECURITY_CLASSIFICATION_LEVEL ( 'unclassified' ) ;
#227 = EDGE_LOOP ( 'NONE', ( #157, #119, #5, #220 ) ) ;
#228 = CARTESIAN_POINT ( 'NONE',  ( -5.989999999999990443, 0.000000000000000000, 0.000000000000000000 ) ) ;
#229 = DIRECTION ( 'NONE',  ( 0.7071067811865692221, 8.659560562354665385E-17, 0.7071067811865257013 ) ) ;
#230 = CARTESIAN_POINT ( 'NONE',  ( 5.990000000000003766, 0.000000000000000000, 0.000000000000000000 ) ) ;
#231 = DESIGN_CONTEXT ( 'detailed design', #16, 'design' ) ;
#232 = DIRECTION ( 'NONE',  ( -1.000000000000000000, 0.000000000000000000, 0.000000000000000000 ) ) ;
#233 = DIRECTION ( 'NONE',  ( -1.000000000000000000, -0.000000000000000000, -0.000000000000000000 ) ) ;
#234 = FACE_OUTER_BOUND ( 'NONE', #227, .T. ) ;
#235 = DIRECTION ( 'NONE',  ( -1.000000000000000000, -0.000000000000000000, -0.000000000000000000 ) ) ;
#236 = EDGE_CURVE ( 'NONE', #7, #95, #35, .T. ) ;
#237 = MANIFOLD_SOLID_BREP ( 'Chamfer1', #113 ) ;
#238 = PERSON_AND_ORGANIZATION ( #200, #206 ) ;
#239 = AXIS2_PLACEMENT_3D ( 'NONE', #228, #55, #100 ) ;
#240 = VERTEX_POINT ( 'NONE', #250 ) ;
#241 = COORDINATED_UNIVERSAL_TIME_OFFSET ( 5, 0, .BEHIND. ) ;
#242 = ORIENTED_EDGE ( 'NONE', *, *, #87, .T. ) ;
#243 = CALENDAR_DATE ( 2023, 7, 6 ) ;
#244 = CARTESIAN_POINT ( 'NONE',  ( 6.000000000000000888, 0.000000000000000000, 0.000000000000000000 ) ) ;
#245 = CARTESIAN_POINT ( 'NONE',  ( -6.000000000000000888, 0.000000000000000000, 0.000000000000000000 ) ) ;
#246 = FACE_OUTER_BOUND ( 'NONE', #29, .T. ) ;
#247 = CARTESIAN_POINT ( 'NONE',  ( -5.989999999999990443, 0.000000000000000000, 0.000000000000000000 ) ) ;
#248 = AXIS2_PLACEMENT_3D ( 'NONE', #86, #69, #20 ) ;
#249 = CC_DESIGN_PERSON_AND_ORGANIZATION_ASSIGNMENT ( #140, #94, ( #60 ) ) ;
#250 = CARTESIAN_POINT ( 'NONE',  ( -6.000000000000000888, 0.000000000000000000, -0.4899999999999906097 ) ) ;
#251 = FACE_OUTER_BOUND ( 'NONE', #195, .T. ) ;
#252 = ADVANCED_FACE ( 'NONE', ( #234 ), #219, .T. ) ;
#253 = APPROVAL_ROLE ( '' ) ;
#254 = PERSON_AND_ORGANIZATION ( #200, #206 ) ;
#255 = ADVANCED_FACE ( 'NONE', ( #66 ), #17, .T. ) ;
#256 = DATE_TIME_ROLE ( 'creation_date' ) ;
#257 = EDGE_CURVE ( 'NONE', #262, #95, #215, .T. ) ;
#258 = ORIENTED_EDGE ( 'NONE', *, *, #257, .T. ) ;
#259 = LOCAL_TIME ( 8, 31, 18.00000000000000000, #67 ) ;
#260 = DATE_AND_TIME ( #49, #8 ) ;
#261 = EDGE_LOOP ( 'NONE', ( #242, #112 ) ) ;
#262 = VERTEX_POINT ( 'NONE', #167 ) ;
#263 = PRODUCT_DEFINITION ( 'UNKNOWN', '', #44, #231 ) ;
#264 = CIRCLE ( 'NONE', #33, 0.5000000000000000000 ) ;
#265 = ORIENTED_EDGE ( 'NONE', *, *, #143, .F. ) ;
#266 = CARTESIAN_POINT ( 'NONE',  ( -6.000000000000000888, 0.000000000000000000, 0.000000000000000000 ) ) ;
#267 = PLANE ( 'NONE',  #127 ) ;
#268 = VECTOR ( 'NONE', #128, 39.37007874015748854 ) ;
#269 = FACE_OUTER_BOUND ( 'NONE', #76, .T. ) ;
#270 = DIRECTION ( 'NONE',  ( 1.000000000000000000, 0.000000000000000000, 0.000000000000000000 ) ) ;
#271 = DIRECTION ( 'NONE',  ( 0.000000000000000000, 0.000000000000000000, -1.000000000000000000 ) ) ;
#272 = CIRCLE ( 'NONE', #155, 0.4900000000000037104 ) ;
#273 = LENGTH_MEASURE_WITH_UNIT ( LENGTH_MEASURE( 0.02539999999999999897 ), #168 );
#274 = COORDINATED_UNIVERSAL_TIME_OFFSET ( 5, 0, .BEHIND. ) ;
#275 = AXIS2_PLACEMENT_3D ( 'NONE', #244, #47, #50 ) ;
#276 = DIRECTION ( 'NONE',  ( 0.000000000000000000, 0.000000000000000000, -1.000000000000000000 ) ) ;
#277 = PERSON_AND_ORGANIZATION ( #200, #206 ) ;
#278 = APPLICATION_CONTEXT ( 'configuration controlled 3d designs of mechanical parts and assemblies' ) ;
ENDSEC;
END-ISO-10303-21;
