ISO-10303-21;
HEADER;
FILE_DESCRIPTION (( 'STEP AP203' ),
    '1' );
FILE_NAME ('NIL16-036.000-SL.step',
    '2023-06-07T12:31:13',
    ( '' ),
    ( '' ),
    'SwSTEP 2.0',
    'SolidWorks 2021',
    '' );
FILE_SCHEMA (( 'CONFIG_CONTROL_DESIGN' ));
ENDSEC;

DATA;
#1 = APPLICATION_PROTOCOL_DEFINITION ( 'international standard', 'config_control_design', 1994, #32 ) ;
#2 = AXIS2_PLACEMENT_3D ( 'NONE', #130, #216, #54 ) ;
#3 = CARTESIAN_POINT ( 'NONE',  ( -17.99000000000000199, 6.123233995736766036E-17, -0.5000000000000000000 ) ) ;
#4 = APPROVAL ( #219, 'UNSPECIFIED' ) ;
#5 = VERTEX_POINT ( 'NONE', #225 ) ;
#6 = ORIENTED_EDGE ( 'NONE', *, *, #14, .T. ) ;
#7 = COORDINATED_UNIVERSAL_TIME_OFFSET ( 5, 0, .BEHIND. ) ;
#8 = CC_DESIGN_DATE_AND_TIME_ASSIGNMENT ( #77, #143, ( #106 ) ) ;
#9 = EDGE_LOOP ( 'NONE', ( #29, #240, #191, #189 ) ) ;
#10 = PERSON_AND_ORGANIZATION ( #24, #220 ) ;
#11 = EDGE_LOOP ( 'NONE', ( #117, #208, #140, #78 ) ) ;
#12 = ORIENTED_EDGE ( 'NONE', *, *, #181, .T. ) ;
#13 = FACE_OUTER_BOUND ( 'NONE', #11, .T. ) ;
#14 = EDGE_CURVE ( 'NONE', #243, #190, #28, .T. ) ;
#15 = CARTESIAN_POINT ( 'NONE',  ( 18.00000000000000000, 0.000000000000000000, 0.000000000000000000 ) ) ;
#16 = CIRCLE ( 'NONE', #218, 0.5000000000000000000 ) ;
#17 = PRODUCT_RELATED_PRODUCT_CATEGORY ( 'detail', '', ( #255 ) ) ;
#18 = DIRECTION ( 'NONE',  ( 0.000000000000000000, 0.000000000000000000, -1.000000000000000000 ) ) ;
#19 = FACE_OUTER_BOUND ( 'NONE', #9, .T. ) ;
#20 = AXIS2_PLACEMENT_3D ( 'NONE', #231, #147, #230 ) ;
#21 = ADVANCED_FACE ( 'NONE', ( #37 ), #57, .F. ) ;
#22 = LOCAL_TIME ( 8, 31, 13.00000000000000000, #239 ) ;
#23 = CARTESIAN_POINT ( 'NONE',  ( 18.00000000000000000, 0.000000000000000000, 0.000000000000000000 ) ) ;
#24 = PERSON ( 'UNSPECIFIED', 'UNSPECIFIED', 'UNSPECIFIED', ('UNSPECIFIED'), ('UNSPECIFIED'), ('UNSPECIFIED') ) ;
#25 = VECTOR ( 'NONE', #55, 39.37007874015748854 ) ;
#26 = EDGE_CURVE ( 'NONE', #5, #243, #42, .T. ) ;
#27 =( GEOMETRIC_REPRESENTATION_CONTEXT ( 3 ) GLOBAL_UNCERTAINTY_ASSIGNED_CONTEXT ( ( #184 ) ) GLOBAL_UNIT_ASSIGNED_CONTEXT ( ( #222, #201, #61 ) ) REPRESENTATION_CONTEXT ( 'NONE', 'WORKASPACE' ) );
#28 = CIRCLE ( 'NONE', #223, 0.5000000000000000000 ) ;
#29 = ORIENTED_EDGE ( 'NONE', *, *, #58, .F. ) ;
#30 = CALENDAR_DATE ( 2023, 7, 6 ) ;
#31 = CARTESIAN_POINT ( 'NONE',  ( -17.99000000000000199, 0.000000000000000000, 0.000000000000000000 ) ) ;
#32 = APPLICATION_CONTEXT ( 'configuration controlled 3d designs of mechanical parts and assemblies' ) ;
#33 = ADVANCED_FACE ( 'NONE', ( #232 ), #108, .T. ) ;
#34 = PERSON_AND_ORGANIZATION_ROLE ( 'creator' ) ;
#35 = EDGE_LOOP ( 'NONE', ( #266, #71, #53, #6 ) ) ;
#36 = CC_DESIGN_APPROVAL ( #4, ( #106 ) ) ;
#37 = FACE_OUTER_BOUND ( 'NONE', #146, .T. ) ;
#38 = CARTESIAN_POINT ( 'NONE',  ( 18.00000000000000000, 0.000000000000000000, 0.000000000000000000 ) ) ;
#39 = CARTESIAN_POINT ( 'NONE',  ( -17.99000000000000199, 6.123233995736766036E-17, 0.5000000000000000000 ) ) ;
#40 = APPROVAL ( #69, 'UNSPECIFIED' ) ;
#41 = DIRECTION ( 'NONE',  ( 0.000000000000000000, 0.000000000000000000, -1.000000000000000000 ) ) ;
#42 = LINE ( 'NONE', #39, #46 ) ;
#43 = LINE ( 'NONE', #64, #175 ) ;
#44 = PERSON_AND_ORGANIZATION ( #24, #220 ) ;
#45 = PERSON_AND_ORGANIZATION ( #24, #220 ) ;
#46 = VECTOR ( 'NONE', #249, 39.37007874015748143 ) ;
#47 = CC_DESIGN_PERSON_AND_ORGANIZATION_ASSIGNMENT ( #188, #118, ( #203 ) ) ;
#48 = DIRECTION ( 'NONE',  ( 1.000000000000000000, 0.000000000000000000, 0.000000000000000000 ) ) ;
#49 = LOCAL_TIME ( 8, 31, 13.00000000000000000, #206 ) ;
#50 = ORIENTED_EDGE ( 'NONE', *, *, #199, .F. ) ;
#51 = ORIENTED_EDGE ( 'NONE', *, *, #58, .T. ) ;
#52 = APPROVAL_ROLE ( '' ) ;
#53 = ORIENTED_EDGE ( 'NONE', *, *, #226, .T. ) ;
#54 = DIRECTION ( 'NONE',  ( 0.000000000000000000, 0.000000000000000000, -1.000000000000000000 ) ) ;
#55 = DIRECTION ( 'NONE',  ( -0.7071067811865353603, 0.000000000000000000, 0.7071067811865595631 ) ) ;
#56 = CC_DESIGN_SECURITY_CLASSIFICATION ( #203, ( #246 ) ) ;
#57 = PLANE ( 'NONE',  #272 ) ;
#58 = EDGE_CURVE ( 'NONE', #5, #245, #144, .T. ) ;
#59 = CARTESIAN_POINT ( 'NONE',  ( 18.00000000000000000, 0.000000000000000000, 0.000000000000000000 ) ) ;
#60 = DIRECTION ( 'NONE',  ( -1.000000000000000000, -0.000000000000000000, -0.000000000000000000 ) ) ;
#61 =( NAMED_UNIT ( * ) SI_UNIT ( $, .STERADIAN. ) SOLID_ANGLE_UNIT ( ) );
#62 = EDGE_CURVE ( 'NONE', #211, #190, #197, .T. ) ;
#63 = AXIS2_PLACEMENT_3D ( 'NONE', #176, #177, #41 ) ;
#64 = CARTESIAN_POINT ( 'NONE',  ( 18.00000000000000000, 6.000769315822064266E-17, -0.4900000000000027667 ) ) ;
#65 = CARTESIAN_POINT ( 'NONE',  ( 18.00000000000000000, 0.000000000000000000, 0.000000000000000000 ) ) ;
#66 = ADVANCED_FACE ( 'NONE', ( #275 ), #195, .T. ) ;
#67 = CARTESIAN_POINT ( 'NONE',  ( 18.00000000000000000, 0.000000000000000000, 0.5000000000000000000 ) ) ;
#68 = APPROVAL ( #241, 'UNSPECIFIED' ) ;
#69 = APPROVAL_STATUS ( 'not_yet_approved' ) ;
#70 = CALENDAR_DATE ( 2023, 7, 6 ) ;
#71 = ORIENTED_EDGE ( 'NONE', *, *, #115, .T. ) ;
#72 = EDGE_CURVE ( 'NONE', #245, #190, #128, .T. ) ;
#73 = DESIGN_CONTEXT ( 'detailed design', #260, 'design' ) ;
#74 = SHAPE_DEFINITION_REPRESENTATION ( #101, #88 ) ;
#75 = CIRCLE ( 'NONE', #112, 0.5000000000000000000 ) ;
#76 = ORIENTED_EDGE ( 'NONE', *, *, #93, .T. ) ;
#77 = DATE_AND_TIME ( #123, #237 ) ;
#78 = ORIENTED_EDGE ( 'NONE', *, *, #14, .F. ) ;
#79 = CC_DESIGN_DATE_AND_TIME_ASSIGNMENT ( #247, #261, ( #203 ) ) ;
#80 = CARTESIAN_POINT ( 'NONE',  ( 18.00000000000000000, 0.000000000000000000, 0.000000000000000000 ) ) ;
#81 = VECTOR ( 'NONE', #84, 39.37007874015748143 ) ;
#82 = CARTESIAN_POINT ( 'NONE',  ( 17.99000000000000199, 0.000000000000000000, 0.000000000000000000 ) ) ;
#83 = CC_DESIGN_PERSON_AND_ORGANIZATION_ASSIGNMENT ( #45, #136, ( #106 ) ) ;
#84 = DIRECTION ( 'NONE',  ( 0.7071067811864557573, 0.000000000000000000, -0.7071067811866392772 ) ) ;
#85 = DIRECTION ( 'NONE',  ( 0.000000000000000000, 0.000000000000000000, -1.000000000000000000 ) ) ;
#86 = CONICAL_SURFACE ( 'NONE', #242, 0.4900000000000027667, 0.7853981633974653764 ) ;
#87 = CONICAL_SURFACE ( 'NONE', #238, 0.4900000000000027667, 0.7853981633974653764 ) ;
#88 = ADVANCED_BREP_SHAPE_REPRESENTATION ( 'NIL16-036.000-SL', ( #276, #152 ), #27 ) ;
#89 = DIRECTION ( 'NONE',  ( -1.000000000000000000, 0.000000000000000000, 0.000000000000000000 ) ) ;
#90 = CALENDAR_DATE ( 2023, 7, 6 ) ;
#91 = CIRCLE ( 'NONE', #122, 0.4900000000000027667 ) ;
#92 = DIRECTION ( 'NONE',  ( 0.000000000000000000, 0.000000000000000000, 1.000000000000000000 ) ) ;
#93 = EDGE_CURVE ( 'NONE', #121, #211, #16, .T. ) ;
#94 = LENGTH_MEASURE_WITH_UNIT ( LENGTH_MEASURE( 0.02539999999999999897 ), #156 );
#95 = ORIENTED_EDGE ( 'NONE', *, *, #226, .F. ) ;
#96 = ADVANCED_FACE ( 'NONE', ( #127 ), #107, .T. ) ;
#97 = DIRECTION ( 'NONE',  ( 1.000000000000000000, -0.000000000000000000, -0.000000000000000000 ) ) ;
#98 = SECURITY_CLASSIFICATION_LEVEL ( 'unclassified' ) ;
#99 = ORIENTED_EDGE ( 'NONE', *, *, #207, .T. ) ;
#100 = EDGE_LOOP ( 'NONE', ( #209, #142, #186, #163 ) ) ;
#101 = PRODUCT_DEFINITION_SHAPE ( 'NONE', 'NONE',  #106 ) ;
#102 = DIRECTION ( 'NONE',  ( 0.000000000000000000, 0.000000000000000000, -1.000000000000000000 ) ) ;
#103 = DIRECTION ( 'NONE',  ( -1.000000000000000000, 0.000000000000000000, 0.000000000000000000 ) ) ;
#104 = CIRCLE ( 'NONE', #244, 0.4900000000000027667 ) ;
#105 = AXIS2_PLACEMENT_3D ( 'NONE', #38, #271, #125 ) ;
#106 = PRODUCT_DEFINITION ( 'UNKNOWN', '', #246, #73 ) ;
#107 = PLANE ( 'NONE',  #235 ) ;
#108 = CYLINDRICAL_SURFACE ( 'NONE', #20, 0.5000000000000000000 ) ;
#109 = CIRCLE ( 'NONE', #165, 0.4899999999999983258 ) ;
#110 = PERSON_AND_ORGANIZATION ( #24, #220 ) ;
#111 = APPROVAL_ROLE ( '' ) ;
#112 = AXIS2_PLACEMENT_3D ( 'NONE', #179, #160, #157 ) ;
#113 = CARTESIAN_POINT ( 'NONE',  ( 18.00000000000000000, 6.062001655779414535E-17, -0.4900000000000027667 ) ) ;
#114 = CC_DESIGN_APPROVAL ( #40, ( #246 ) ) ;
#115 = EDGE_CURVE ( 'NONE', #211, #121, #116, .T. ) ;
#116 = CIRCLE ( 'NONE', #269, 0.5000000000000000000 ) ;
#117 = ORIENTED_EDGE ( 'NONE', *, *, #26, .F. ) ;
#118 = PERSON_AND_ORGANIZATION_ROLE ( 'classification_officer' ) ;
#119 = LOCAL_TIME ( 8, 31, 13.00000000000000000, #139 ) ;
#120 = APPROVAL_DATE_TIME ( #210, #68 ) ;
#121 = VERTEX_POINT ( 'NONE', #212 ) ;
#122 = AXIS2_PLACEMENT_3D ( 'NONE', #59, #217, #102 ) ;
#123 = CALENDAR_DATE ( 2023, 7, 6 ) ;
#124 = EDGE_LOOP ( 'NONE', ( #50, #248, #12, #169 ) ) ;
#125 = DIRECTION ( 'NONE',  ( 0.000000000000000000, 0.000000000000000000, 1.000000000000000000 ) ) ;
#126 = APPROVAL_PERSON_ORGANIZATION ( #10, #40, #52 ) ;
#127 = FACE_OUTER_BOUND ( 'NONE', #228, .T. ) ;
#128 = LINE ( 'NONE', #151, #81 ) ;
#129 = VECTOR ( 'NONE', #204, 39.37007874015748143 ) ;
#130 = CARTESIAN_POINT ( 'NONE',  ( -17.99000000000000199, 0.000000000000000000, 0.000000000000000000 ) ) ;
#131 = DIRECTION ( 'NONE',  ( -1.000000000000000000, 0.000000000000000000, 0.000000000000000000 ) ) ;
#132 = ADVANCED_FACE ( 'NONE', ( #19 ), #194, .T. ) ;
#133 = DIRECTION ( 'NONE',  ( 1.000000000000000000, 0.000000000000000000, 0.000000000000000000 ) ) ;
#134 = CARTESIAN_POINT ( 'NONE',  ( -17.99000000000000199, 0.000000000000000000, 0.5000000000000000000 ) ) ;
#135 = VECTOR ( 'NONE', #270, 39.37007874015748143 ) ;
#136 = PERSON_AND_ORGANIZATION_ROLE ( 'creator' ) ;
#137 = DIRECTION ( 'NONE',  ( 0.000000000000000000, 0.000000000000000000, -1.000000000000000000 ) ) ;
#138 = MECHANICAL_CONTEXT ( 'NONE', #32, 'mechanical' ) ;
#139 = COORDINATED_UNIVERSAL_TIME_OFFSET ( 5, 0, .BEHIND. ) ;
#140 = ORIENTED_EDGE ( 'NONE', *, *, #72, .T. ) ;
#141 = CALENDAR_DATE ( 2023, 7, 6 ) ;
#142 = ORIENTED_EDGE ( 'NONE', *, *, #199, .T. ) ;
#143 = DATE_TIME_ROLE ( 'creation_date' ) ;
#144 = CIRCLE ( 'NONE', #251, 0.4899999999999983258 ) ;
#145 = PERSON_AND_ORGANIZATION_ROLE ( 'design_supplier' ) ;
#146 = EDGE_LOOP ( 'NONE', ( #205, #51 ) ) ;
#147 = DIRECTION ( 'NONE',  ( -1.000000000000000000, -0.000000000000000000, -0.000000000000000000 ) ) ;
#148 = LINE ( 'NONE', #170, #25 ) ;
#149 = ADVANCED_FACE ( 'NONE', ( #13 ), #174, .T. ) ;
#150 = CARTESIAN_POINT ( 'NONE',  ( -18.00000000000000000, 0.000000000000000000, 0.000000000000000000 ) ) ;
#151 = CARTESIAN_POINT ( 'NONE',  ( -17.99000000000000199, 0.000000000000000000, -0.5000000000000000000 ) ) ;
#152 = AXIS2_PLACEMENT_3D ( 'NONE', #221, #259, #48 ) ;
#153 = CC_DESIGN_PERSON_AND_ORGANIZATION_ASSIGNMENT ( #227, #145, ( #246 ) ) ;
#154 = DIRECTION ( 'NONE',  ( 1.000000000000000000, 0.000000000000000000, 0.000000000000000000 ) ) ;
#155 = CLOSED_SHELL ( 'NONE', ( #132, #185, #66, #33, #96, #21, #159, #149 ) ) ;
#156 =( LENGTH_UNIT ( ) NAMED_UNIT ( * ) SI_UNIT ( $, .METRE. ) );
#157 = DIRECTION ( 'NONE',  ( 0.000000000000000000, 0.000000000000000000, -1.000000000000000000 ) ) ;
#158 = DIRECTION ( 'NONE',  ( -0.7071067811865353603, 8.659560562355080770E-17, -0.7071067811865595631 ) ) ;
#159 = ADVANCED_FACE ( 'NONE', ( #171 ), #86, .T. ) ;
#160 = DIRECTION ( 'NONE',  ( 1.000000000000000000, -0.000000000000000000, -0.000000000000000000 ) ) ;
#161 = CARTESIAN_POINT ( 'NONE',  ( 18.00000000000000000, 0.000000000000000000, 0.4900000000000027667 ) ) ;
#162 = APPROVAL_ROLE ( '' ) ;
#163 = ORIENTED_EDGE ( 'NONE', *, *, #181, .F. ) ;
#164 = APPROVAL_DATE_TIME ( #168, #40 ) ;
#165 = AXIS2_PLACEMENT_3D ( 'NONE', #257, #60, #233 ) ;
#166 = PERSON_AND_ORGANIZATION ( #24, #220 ) ;
#167 = EDGE_LOOP ( 'NONE', ( #76, #267, #224, #95 ) ) ;
#168 = DATE_AND_TIME ( #70, #49 ) ;
#169 = ORIENTED_EDGE ( 'NONE', *, *, #115, .F. ) ;
#170 = CARTESIAN_POINT ( 'NONE',  ( 18.00000000000000000, 0.000000000000000000, 0.4900000000000027667 ) ) ;
#171 = FACE_OUTER_BOUND ( 'NONE', #124, .T. ) ;
#172 = DIRECTION ( 'NONE',  ( 0.000000000000000000, 0.000000000000000000, -1.000000000000000000 ) ) ;
#173 = EDGE_CURVE ( 'NONE', #187, #262, #91, .T. ) ;
#174 = CONICAL_SURFACE ( 'NONE', #2, 0.5000000000000000000, 0.7853981633975780641 ) ;
#175 = VECTOR ( 'NONE', #158, 39.37007874015748854 ) ;
#176 = CARTESIAN_POINT ( 'NONE',  ( -17.99000000000000199, 0.000000000000000000, 0.000000000000000000 ) ) ;
#177 = DIRECTION ( 'NONE',  ( 1.000000000000000000, -0.000000000000000000, -0.000000000000000000 ) ) ;
#178 = LOCAL_TIME ( 8, 31, 13.00000000000000000, #200 ) ;
#179 = CARTESIAN_POINT ( 'NONE',  ( -17.99000000000000199, 0.000000000000000000, 0.000000000000000000 ) ) ;
#180 = DATE_AND_TIME ( #90, #178 ) ;
#181 = EDGE_CURVE ( 'NONE', #262, #121, #148, .T. ) ;
#182 = CARTESIAN_POINT ( 'NONE',  ( 17.99000000000000199, 6.123233995736766036E-17, -0.5000000000000000000 ) ) ;
#183 = CC_DESIGN_APPROVAL ( #68, ( #203 ) ) ;
#184 = UNCERTAINTY_MEASURE_WITH_UNIT (LENGTH_MEASURE( 1.000000000000000082E-05 ), #222, 'distance_accuracy_value', 'NONE');
#185 = ADVANCED_FACE ( 'NONE', ( #213 ), #87, .T. ) ;
#186 = ORIENTED_EDGE ( 'NONE', *, *, #93, .F. ) ;
#187 = VERTEX_POINT ( 'NONE', #113 ) ;
#188 = PERSON_AND_ORGANIZATION ( #24, #220 ) ;
#189 = ORIENTED_EDGE ( 'NONE', *, *, #72, .F. ) ;
#190 = VERTEX_POINT ( 'NONE', #3 ) ;
#191 = ORIENTED_EDGE ( 'NONE', *, *, #265, .F. ) ;
#192 = CARTESIAN_POINT ( 'NONE',  ( -18.00000000000000000, 0.000000000000000000, 0.000000000000000000 ) ) ;
#193 = DIRECTION ( 'NONE',  ( -1.000000000000000000, -0.000000000000000000, -0.000000000000000000 ) ) ;
#194 = CONICAL_SURFACE ( 'NONE', #63, 0.5000000000000000000, 0.7853981633975780641 ) ;
#195 = CYLINDRICAL_SURFACE ( 'NONE', #105, 0.5000000000000000000 ) ;
#196 = CARTESIAN_POINT ( 'NONE',  ( 17.99000000000000199, 0.000000000000000000, 0.000000000000000000 ) ) ;
#197 = LINE ( 'NONE', #215, #135 ) ;
#198 = CARTESIAN_POINT ( 'NONE',  ( -18.00000000000000000, 0.000000000000000000, -0.4899999999999983258 ) ) ;
#199 = EDGE_CURVE ( 'NONE', #187, #211, #43, .T. ) ;
#200 = COORDINATED_UNIVERSAL_TIME_OFFSET ( 5, 0, .BEHIND. ) ;
#201 =( NAMED_UNIT ( * ) PLANE_ANGLE_UNIT ( ) SI_UNIT ( $, .RADIAN. ) );
#202 = CC_DESIGN_PERSON_AND_ORGANIZATION_ASSIGNMENT ( #263, #34, ( #246 ) ) ;
#203 = SECURITY_CLASSIFICATION ( '', '', #98 ) ;
#204 = DIRECTION ( 'NONE',  ( -1.000000000000000000, -0.000000000000000000, -0.000000000000000000 ) ) ;
#205 = ORIENTED_EDGE ( 'NONE', *, *, #256, .T. ) ;
#206 = COORDINATED_UNIVERSAL_TIME_OFFSET ( 5, 0, .BEHIND. ) ;
#207 = EDGE_CURVE ( 'NONE', #262, #187, #104, .T. ) ;
#208 = ORIENTED_EDGE ( 'NONE', *, *, #256, .F. ) ;
#209 = ORIENTED_EDGE ( 'NONE', *, *, #173, .F. ) ;
#210 = DATE_AND_TIME ( #141, #22 ) ;
#211 = VERTEX_POINT ( 'NONE', #182 ) ;
#212 = CARTESIAN_POINT ( 'NONE',  ( 17.99000000000000199, 0.000000000000000000, 0.5000000000000000000 ) ) ;
#213 = FACE_OUTER_BOUND ( 'NONE', #100, .T. ) ;
#214 = CC_DESIGN_PERSON_AND_ORGANIZATION_ASSIGNMENT ( #110, #278, ( #255 ) ) ;
#215 = CARTESIAN_POINT ( 'NONE',  ( 18.00000000000000000, 6.123233995736766036E-17, -0.5000000000000000000 ) ) ;
#216 = DIRECTION ( 'NONE',  ( 1.000000000000000000, -0.000000000000000000, -0.000000000000000000 ) ) ;
#217 = DIRECTION ( 'NONE',  ( 1.000000000000000000, 0.000000000000000000, 0.000000000000000000 ) ) ;
#218 = AXIS2_PLACEMENT_3D ( 'NONE', #196, #89, #18 ) ;
#219 = APPROVAL_STATUS ( 'not_yet_approved' ) ;
#220 = ORGANIZATION ( 'UNSPECIFIED', 'UNSPECIFIED', '' ) ;
#221 = CARTESIAN_POINT ( 'NONE',  ( 0.000000000000000000, 0.000000000000000000, 0.000000000000000000 ) ) ;
#222 =( CONVERSION_BASED_UNIT ( 'INCH', #94 ) LENGTH_UNIT ( ) NAMED_UNIT ( #277 ) );
#223 = AXIS2_PLACEMENT_3D ( 'NONE', #31, #97, #268 ) ;
#224 = ORIENTED_EDGE ( 'NONE', *, *, #265, .T. ) ;
#225 = CARTESIAN_POINT ( 'NONE',  ( -18.00000000000000000, 6.062001655779388650E-17, 0.4899999999999983258 ) ) ;
#226 = EDGE_CURVE ( 'NONE', #121, #243, #236, .T. ) ;
#227 = PERSON_AND_ORGANIZATION ( #24, #220 ) ;
#228 = EDGE_LOOP ( 'NONE', ( #99, #264 ) ) ;
#229 = DIRECTION ( 'NONE',  ( 0.000000000000000000, 0.000000000000000000, -1.000000000000000000 ) ) ;
#230 = DIRECTION ( 'NONE',  ( 0.000000000000000000, 0.000000000000000000, 1.000000000000000000 ) ) ;
#231 = CARTESIAN_POINT ( 'NONE',  ( 18.00000000000000000, 0.000000000000000000, 0.000000000000000000 ) ) ;
#232 = FACE_OUTER_BOUND ( 'NONE', #35, .T. ) ;
#233 = DIRECTION ( 'NONE',  ( 0.000000000000000000, 0.000000000000000000, -1.000000000000000000 ) ) ;
#234 = APPLICATION_PROTOCOL_DEFINITION ( 'international standard', 'config_control_design', 1994, #260 ) ;
#235 = AXIS2_PLACEMENT_3D ( 'NONE', #23, #274, #172 ) ;
#236 = LINE ( 'NONE', #67, #129 ) ;
#237 = LOCAL_TIME ( 8, 31, 13.00000000000000000, #7 ) ;
#238 = AXIS2_PLACEMENT_3D ( 'NONE', #15, #103, #92 ) ;
#239 = COORDINATED_UNIVERSAL_TIME_OFFSET ( 5, 0, .BEHIND. ) ;
#240 = ORIENTED_EDGE ( 'NONE', *, *, #26, .T. ) ;
#241 = APPROVAL_STATUS ( 'not_yet_approved' ) ;
#242 = AXIS2_PLACEMENT_3D ( 'NONE', #80, #250, #253 ) ;
#243 = VERTEX_POINT ( 'NONE', #134 ) ;
#244 = AXIS2_PLACEMENT_3D ( 'NONE', #65, #133, #137 ) ;
#245 = VERTEX_POINT ( 'NONE', #198 ) ;
#246 = PRODUCT_DEFINITION_FORMATION_WITH_SPECIFIED_SOURCE ( 'ANY', '', #255, .NOT_KNOWN. ) ;
#247 = DATE_AND_TIME ( #30, #119 ) ;
#248 = ORIENTED_EDGE ( 'NONE', *, *, #207, .F. ) ;
#249 = DIRECTION ( 'NONE',  ( 0.7071067811864557573, 8.659560562356056985E-17, 0.7071067811866392772 ) ) ;
#250 = DIRECTION ( 'NONE',  ( -1.000000000000000000, 0.000000000000000000, 0.000000000000000000 ) ) ;
#251 = AXIS2_PLACEMENT_3D ( 'NONE', #192, #193, #85 ) ;
#252 = DIRECTION ( 'NONE',  ( 0.000000000000000000, 0.000000000000000000, -1.000000000000000000 ) ) ;
#253 = DIRECTION ( 'NONE',  ( 0.000000000000000000, 0.000000000000000000, 1.000000000000000000 ) ) ;
#254 = APPROVAL_DATE_TIME ( #180, #4 ) ;
#255 = PRODUCT ( 'NIL16-036.000-SL', 'NIL16-036.000-SL', '', ( #138 ) ) ;
#256 = EDGE_CURVE ( 'NONE', #245, #5, #109, .T. ) ;
#257 = CARTESIAN_POINT ( 'NONE',  ( -18.00000000000000000, 0.000000000000000000, 0.000000000000000000 ) ) ;
#258 = APPROVAL_PERSON_ORGANIZATION ( #44, #4, #111 ) ;
#259 = DIRECTION ( 'NONE',  ( 0.000000000000000000, 0.000000000000000000, 1.000000000000000000 ) ) ;
#260 = APPLICATION_CONTEXT ( 'configuration controlled 3d designs of mechanical parts and assemblies' ) ;
#261 = DATE_TIME_ROLE ( 'classification_date' ) ;
#262 = VERTEX_POINT ( 'NONE', #161 ) ;
#263 = PERSON_AND_ORGANIZATION ( #24, #220 ) ;
#264 = ORIENTED_EDGE ( 'NONE', *, *, #173, .T. ) ;
#265 = EDGE_CURVE ( 'NONE', #190, #243, #75, .T. ) ;
#266 = ORIENTED_EDGE ( 'NONE', *, *, #62, .F. ) ;
#267 = ORIENTED_EDGE ( 'NONE', *, *, #62, .T. ) ;
#268 = DIRECTION ( 'NONE',  ( 0.000000000000000000, 0.000000000000000000, -1.000000000000000000 ) ) ;
#269 = AXIS2_PLACEMENT_3D ( 'NONE', #82, #131, #252 ) ;
#270 = DIRECTION ( 'NONE',  ( -1.000000000000000000, -0.000000000000000000, -0.000000000000000000 ) ) ;
#271 = DIRECTION ( 'NONE',  ( -1.000000000000000000, -0.000000000000000000, -0.000000000000000000 ) ) ;
#272 = AXIS2_PLACEMENT_3D ( 'NONE', #150, #154, #229 ) ;
#273 = APPROVAL_PERSON_ORGANIZATION ( #166, #68, #162 ) ;
#274 = DIRECTION ( 'NONE',  ( 1.000000000000000000, 0.000000000000000000, 0.000000000000000000 ) ) ;
#275 = FACE_OUTER_BOUND ( 'NONE', #167, .T. ) ;
#276 = MANIFOLD_SOLID_BREP ( 'Chamfer1', #155 ) ;
#277 = DIMENSIONAL_EXPONENTS ( 1.000000000000000000, 0.000000000000000000, 0.000000000000000000, 0.000000000000000000, 0.000000000000000000, 0.000000000000000000, 0.000000000000000000 ) ;
#278 = PERSON_AND_ORGANIZATION_ROLE ( 'design_owner' ) ;
ENDSEC;
END-ISO-10303-21;
