ISO-10303-21;
HEADER;
FILE_DESCRIPTION (( 'STEP AP203' ),
    '1' );
FILE_NAME ('NIL16-024.000-SL.step',
    '2023-06-07T12:31:07',
    ( '' ),
    ( '' ),
    'SwSTEP 2.0',
    'SolidWorks 2021',
    '' );
FILE_SCHEMA (( 'CONFIG_CONTROL_DESIGN' ));
ENDSEC;

DATA;
#1 = CALENDAR_DATE ( 2023, 7, 6 ) ;
#2 = AXIS2_PLACEMENT_3D ( 'NONE', #176, #225, #248 ) ;
#3 = EDGE_CURVE ( 'NONE', #267, #197, #22, .T. ) ;
#4 = ORIENTED_EDGE ( 'NONE', *, *, #129, .F. ) ;
#5 = DIRECTION ( 'NONE',  ( 0.000000000000000000, 0.000000000000000000, -1.000000000000000000 ) ) ;
#6 = ORIENTED_EDGE ( 'NONE', *, *, #273, .F. ) ;
#7 = DIRECTION ( 'NONE',  ( 0.000000000000000000, 0.000000000000000000, -1.000000000000000000 ) ) ;
#8 = ORIENTED_EDGE ( 'NONE', *, *, #61, .F. ) ;
#9 = CARTESIAN_POINT ( 'NONE',  ( -12.00000000000000178, 0.000000000000000000, 0.000000000000000000 ) ) ;
#10 = CC_DESIGN_DATE_AND_TIME_ASSIGNMENT ( #23, #90, ( #68 ) ) ;
#11 = CARTESIAN_POINT ( 'NONE',  ( -11.98999999999998067, 6.123233995736764803E-17, -0.5000000000000000000 ) ) ;
#12 = ORIENTED_EDGE ( 'NONE', *, *, #49, .T. ) ;
#13 =( LENGTH_UNIT ( ) NAMED_UNIT ( * ) SI_UNIT ( $, .METRE. ) );
#14 = DIRECTION ( 'NONE',  ( -1.000000000000000000, -0.000000000000000000, -0.000000000000000000 ) ) ;
#15 = AXIS2_PLACEMENT_3D ( 'NONE', #142, #120, #60 ) ;
#16 = CALENDAR_DATE ( 2023, 7, 6 ) ;
#17 = CARTESIAN_POINT ( 'NONE',  ( 12.00000000000000178, 0.000000000000000000, 0.000000000000000000 ) ) ;
#18 = CONICAL_SURFACE ( 'NONE', #2, 0.4900000000000113709, 0.7853981633974722598 ) ;
#19 = APPROVAL_STATUS ( 'not_yet_approved' ) ;
#20 = LOCAL_TIME ( 8, 31, 7.000000000000000000, #148 ) ;
#21 = APPROVAL_DATE_TIME ( #45, #151 ) ;
#22 = CIRCLE ( 'NONE', #144, 0.5000000000000000000 ) ;
#23 = DATE_AND_TIME ( #186, #226 ) ;
#24 = MANIFOLD_SOLID_BREP ( 'Chamfer1', #130 ) ;
#25 = EDGE_CURVE ( 'NONE', #95, #27, #58, .T. ) ;
#26 = LOCAL_TIME ( 8, 31, 7.000000000000000000, #127 ) ;
#27 = VERTEX_POINT ( 'NONE', #119 ) ;
#28 = VECTOR ( 'NONE', #40, 39.37007874015748143 ) ;
#29 = DIRECTION ( 'NONE',  ( 1.000000000000000000, -0.000000000000000000, -0.000000000000000000 ) ) ;
#30 = EDGE_LOOP ( 'NONE', ( #4, #265, #156, #269 ) ) ;
#31 = VECTOR ( 'NONE', #78, 39.37007874015748143 ) ;
#32 = DIRECTION ( 'NONE',  ( -1.000000000000000000, -0.000000000000000000, -0.000000000000000000 ) ) ;
#33 = ORIENTED_EDGE ( 'NONE', *, *, #25, .F. ) ;
#34 = DIRECTION ( 'NONE',  ( 0.7071067811866079689, 8.659560562354194534E-17, 0.7071067811864871766 ) ) ;
#35 = ORIENTED_EDGE ( 'NONE', *, *, #3, .T. ) ;
#36 = FACE_OUTER_BOUND ( 'NONE', #201, .T. ) ;
#37 = EDGE_LOOP ( 'NONE', ( #251, #138, #35, #8 ) ) ;
#38 = AXIS2_PLACEMENT_3D ( 'NONE', #155, #118, #115 ) ;
#39 = DIRECTION ( 'NONE',  ( 0.000000000000000000, 0.000000000000000000, -1.000000000000000000 ) ) ;
#40 = DIRECTION ( 'NONE',  ( 0.7071067811866079689, 0.000000000000000000, -0.7071067811864871766 ) ) ;
#41 = DIRECTION ( 'NONE',  ( 1.000000000000000000, 0.000000000000000000, 0.000000000000000000 ) ) ;
#42 = CARTESIAN_POINT ( 'NONE',  ( 12.00000000000000178, 0.000000000000000000, 0.5000000000000000000 ) ) ;
#43 = APPROVAL_DATE_TIME ( #258, #126 ) ;
#44 = DIRECTION ( 'NONE',  ( 0.000000000000000000, 0.000000000000000000, 1.000000000000000000 ) ) ;
#45 = DATE_AND_TIME ( #89, #20 ) ;
#46 = PRODUCT_RELATED_PRODUCT_CATEGORY ( 'detail', '', ( #71 ) ) ;
#47 = COORDINATED_UNIVERSAL_TIME_OFFSET ( 5, 0, .BEHIND. ) ;
#48 = AXIS2_PLACEMENT_3D ( 'NONE', #146, #44, #41 ) ;
#49 = EDGE_CURVE ( 'NONE', #74, #95, #235, .T. ) ;
#50 = APPROVAL_DATE_TIME ( #195, #137 ) ;
#51 = CC_DESIGN_APPROVAL ( #151, ( #170 ) ) ;
#52 = ORIENTED_EDGE ( 'NONE', *, *, #157, .T. ) ;
#53 = DIRECTION ( 'NONE',  ( 0.000000000000000000, 0.000000000000000000, -1.000000000000000000 ) ) ;
#54 = AXIS2_PLACEMENT_3D ( 'NONE', #184, #153, #254 ) ;
#55 = CYLINDRICAL_SURFACE ( 'NONE', #38, 0.5000000000000000000 ) ;
#56 = DIRECTION ( 'NONE',  ( 0.000000000000000000, 0.000000000000000000, -1.000000000000000000 ) ) ;
#57 = VERTEX_POINT ( 'NONE', #185 ) ;
#58 = CIRCLE ( 'NONE', #15, 0.5000000000000000000 ) ;
#59 = CARTESIAN_POINT ( 'NONE',  ( 12.00000000000000178, 0.000000000000000000, 0.000000000000000000 ) ) ;
#60 = DIRECTION ( 'NONE',  ( 0.000000000000000000, 0.000000000000000000, -1.000000000000000000 ) ) ;
#61 = EDGE_CURVE ( 'NONE', #27, #197, #164, .T. ) ;
#62 = APPROVAL_ROLE ( '' ) ;
#63 = LOCAL_TIME ( 8, 31, 7.000000000000000000, #47 ) ;
#64 = PERSON_AND_ORGANIZATION ( #75, #175 ) ;
#65 = DIRECTION ( 'NONE',  ( -1.000000000000000000, 0.000000000000000000, 0.000000000000000000 ) ) ;
#66 = PERSON_AND_ORGANIZATION_ROLE ( 'design_supplier' ) ;
#67 = CC_DESIGN_PERSON_AND_ORGANIZATION_ASSIGNMENT ( #123, #218, ( #68 ) ) ;
#68 = SECURITY_CLASSIFICATION ( '', '', #238 ) ;
#69 = EDGE_CURVE ( 'NONE', #95, #267, #208, .T. ) ;
#70 = DIRECTION ( 'NONE',  ( 0.000000000000000000, 0.000000000000000000, -1.000000000000000000 ) ) ;
#71 = PRODUCT ( 'NIL16-024.000-SL', 'NIL16-024.000-SL', '', ( #214 ) ) ;
#72 = ADVANCED_FACE ( 'NONE', ( #211 ), #223, .T. ) ;
#73 = DIRECTION ( 'NONE',  ( -1.000000000000000000, 0.000000000000000000, 0.000000000000000000 ) ) ;
#74 = VERTEX_POINT ( 'NONE', #272 ) ;
#75 = PERSON ( 'UNSPECIFIED', 'UNSPECIFIED', 'UNSPECIFIED', ('UNSPECIFIED'), ('UNSPECIFIED'), ('UNSPECIFIED') ) ;
#76 = CARTESIAN_POINT ( 'NONE',  ( -12.00000000000000178, 6.062001655779280182E-17, 0.4899999999999807843 ) ) ;
#77 = ORIENTED_EDGE ( 'NONE', *, *, #215, .F. ) ;
#78 = DIRECTION ( 'NONE',  ( -0.7071067811865305863, 0.000000000000000000, 0.7071067811865644481 ) ) ;
#79 = ORIENTED_EDGE ( 'NONE', *, *, #152, .T. ) ;
#80 = DESIGN_CONTEXT ( 'detailed design', #177, 'design' ) ;
#81 = FACE_OUTER_BOUND ( 'NONE', #97, .T. ) ;
#82 = CARTESIAN_POINT ( 'NONE',  ( 12.00000000000000178, 6.000769315822170270E-17, -0.4900000000000113709 ) ) ;
#83 = APPROVAL_PERSON_ORGANIZATION ( #191, #151, #169 ) ;
#84 = CARTESIAN_POINT ( 'NONE',  ( 11.99000000000001265, 6.123233995736764803E-17, -0.5000000000000000000 ) ) ;
#85 = APPLICATION_PROTOCOL_DEFINITION ( 'international standard', 'config_control_design', 1994, #177 ) ;
#86 = CC_DESIGN_PERSON_AND_ORGANIZATION_ASSIGNMENT ( #167, #66, ( #243 ) ) ;
#87 = PERSON_AND_ORGANIZATION_ROLE ( 'creator' ) ;
#88 = CIRCLE ( 'NONE', #122, 0.5000000000000000000 ) ;
#89 = CALENDAR_DATE ( 2023, 7, 6 ) ;
#90 = DATE_TIME_ROLE ( 'classification_date' ) ;
#91 = VECTOR ( 'NONE', #14, 39.37007874015748143 ) ;
#92 = EDGE_LOOP ( 'NONE', ( #203, #229, #154, #33 ) ) ;
#93 = CIRCLE ( 'NONE', #198, 0.4900000000000113709 ) ;
#94 = FACE_OUTER_BOUND ( 'NONE', #245, .T. ) ;
#95 = VERTEX_POINT ( 'NONE', #84 ) ;
#96 = DIRECTION ( 'NONE',  ( 1.000000000000000000, 0.000000000000000000, 0.000000000000000000 ) ) ;
#97 = EDGE_LOOP ( 'NONE', ( #182, #135 ) ) ;
#98 = FACE_OUTER_BOUND ( 'NONE', #37, .T. ) ;
#99 = LINE ( 'NONE', #183, #31 ) ;
#100 = ORIENTED_EDGE ( 'NONE', *, *, #277, .F. ) ;
#101 = CIRCLE ( 'NONE', #234, 0.4899999999999807843 ) ;
#102 = APPROVAL_ROLE ( '' ) ;
#103 = DIRECTION ( 'NONE',  ( 0.000000000000000000, 0.000000000000000000, 1.000000000000000000 ) ) ;
#104 = AXIS2_PLACEMENT_3D ( 'NONE', #160, #252, #39 ) ;
#105 = DATE_TIME_ROLE ( 'creation_date' ) ;
#106 = APPROVAL_PERSON_ORGANIZATION ( #171, #137, #62 ) ;
#107 =( CONVERSION_BASED_UNIT ( 'INCH', #240 ) LENGTH_UNIT ( ) NAMED_UNIT ( #194 ) );
#108 = CC_DESIGN_PERSON_AND_ORGANIZATION_ASSIGNMENT ( #275, #87, ( #243 ) ) ;
#109 = AXIS2_PLACEMENT_3D ( 'NONE', #264, #73, #178 ) ;
#110 = EDGE_CURVE ( 'NONE', #57, #267, #165, .T. ) ;
#111 = DIRECTION ( 'NONE',  ( 1.000000000000000000, 0.000000000000000000, 0.000000000000000000 ) ) ;
#112 = CC_DESIGN_APPROVAL ( #137, ( #68 ) ) ;
#113 = AXIS2_PLACEMENT_3D ( 'NONE', #158, #224, #56 ) ;
#114 = APPROVAL_PERSON_ORGANIZATION ( #64, #126, #102 ) ;
#115 = DIRECTION ( 'NONE',  ( 0.000000000000000000, 0.000000000000000000, 1.000000000000000000 ) ) ;
#116 = VERTEX_POINT ( 'NONE', #76 ) ;
#117 = FACE_OUTER_BOUND ( 'NONE', #256, .T. ) ;
#118 = DIRECTION ( 'NONE',  ( -1.000000000000000000, -0.000000000000000000, -0.000000000000000000 ) ) ;
#119 = CARTESIAN_POINT ( 'NONE',  ( 11.99000000000001265, 0.000000000000000000, 0.5000000000000000000 ) ) ;
#120 = DIRECTION ( 'NONE',  ( -1.000000000000000000, 0.000000000000000000, 0.000000000000000000 ) ) ;
#121 = COORDINATED_UNIVERSAL_TIME_OFFSET ( 5, 0, .BEHIND. ) ;
#122 = AXIS2_PLACEMENT_3D ( 'NONE', #247, #29, #268 ) ;
#123 = PERSON_AND_ORGANIZATION ( #75, #175 ) ;
#124 = ADVANCED_FACE ( 'NONE', ( #36 ), #246, .T. ) ;
#125 = DATE_AND_TIME ( #16, #63 ) ;
#126 = APPROVAL ( #19, 'UNSPECIFIED' ) ;
#127 = COORDINATED_UNIVERSAL_TIME_OFFSET ( 5, 0, .BEHIND. ) ;
#128 = ORIENTED_EDGE ( 'NONE', *, *, #61, .T. ) ;
#129 = EDGE_CURVE ( 'NONE', #116, #57, #101, .T. ) ;
#130 = CLOSED_SHELL ( 'NONE', ( #221, #196, #219, #192, #259, #262, #72, #124 ) ) ;
#131 = DIRECTION ( 'NONE',  ( 1.000000000000000000, -0.000000000000000000, -0.000000000000000000 ) ) ;
#132 = DIRECTION ( 'NONE',  ( 0.000000000000000000, 0.000000000000000000, -1.000000000000000000 ) ) ;
#133 = ORIENTED_EDGE ( 'NONE', *, *, #25, .T. ) ;
#134 = LINE ( 'NONE', #266, #147 ) ;
#135 = ORIENTED_EDGE ( 'NONE', *, *, #129, .T. ) ;
#136 = PLANE ( 'NONE',  #149 ) ;
#137 = APPROVAL ( #141, 'UNSPECIFIED' ) ;
#138 = ORIENTED_EDGE ( 'NONE', *, *, #69, .T. ) ;
#139 = PLANE ( 'NONE',  #113 ) ;
#140 = ORIENTED_EDGE ( 'NONE', *, *, #110, .T. ) ;
#141 = APPROVAL_STATUS ( 'not_yet_approved' ) ;
#142 = CARTESIAN_POINT ( 'NONE',  ( 11.99000000000001265, 0.000000000000000000, 0.000000000000000000 ) ) ;
#143 = DIRECTION ( 'NONE',  ( 1.000000000000000000, -0.000000000000000000, -0.000000000000000000 ) ) ;
#144 = AXIS2_PLACEMENT_3D ( 'NONE', #255, #143, #253 ) ;
#145 = PRODUCT_DEFINITION_SHAPE ( 'NONE', 'NONE',  #170 ) ;
#146 = CARTESIAN_POINT ( 'NONE',  ( 0.000000000000000000, 0.000000000000000000, 0.000000000000000000 ) ) ;
#147 = VECTOR ( 'NONE', #34, 39.37007874015748143 ) ;
#148 = COORDINATED_UNIVERSAL_TIME_OFFSET ( 5, 0, .BEHIND. ) ;
#149 = AXIS2_PLACEMENT_3D ( 'NONE', #230, #206, #270 ) ;
#150 = LOCAL_TIME ( 8, 31, 7.000000000000000000, #121 ) ;
#151 = APPROVAL ( #276, 'UNSPECIFIED' ) ;
#152 = EDGE_CURVE ( 'NONE', #74, #205, #93, .T. ) ;
#153 = DIRECTION ( 'NONE',  ( -1.000000000000000000, -0.000000000000000000, -0.000000000000000000 ) ) ;
#154 = ORIENTED_EDGE ( 'NONE', *, *, #273, .T. ) ;
#155 = CARTESIAN_POINT ( 'NONE',  ( 12.00000000000000178, 0.000000000000000000, 0.000000000000000000 ) ) ;
#156 = ORIENTED_EDGE ( 'NONE', *, *, #3, .F. ) ;
#157 = EDGE_CURVE ( 'NONE', #205, #74, #168, .T. ) ;
#158 = CARTESIAN_POINT ( 'NONE',  ( 12.00000000000000178, 0.000000000000000000, 0.000000000000000000 ) ) ;
#159 = ORIENTED_EDGE ( 'NONE', *, *, #242, .F. ) ;
#160 = CARTESIAN_POINT ( 'NONE',  ( -12.00000000000000178, 0.000000000000000000, 0.000000000000000000 ) ) ;
#161 = CARTESIAN_POINT ( 'NONE',  ( -11.98999999999998067, 0.000000000000000000, -0.5000000000000000000 ) ) ;
#162 = CARTESIAN_POINT ( 'NONE',  ( -11.98999999999998067, 0.000000000000000000, 0.000000000000000000 ) ) ;
#163 = CONICAL_SURFACE ( 'NONE', #199, 0.5000000000000000000, 0.7853981633973630139 ) ;
#164 = LINE ( 'NONE', #42, #210 ) ;
#165 = LINE ( 'NONE', #161, #28 ) ;
#166 =( NAMED_UNIT ( * ) SI_UNIT ( $, .STERADIAN. ) SOLID_ANGLE_UNIT ( ) );
#167 = PERSON_AND_ORGANIZATION ( #75, #175 ) ;
#168 = CIRCLE ( 'NONE', #220, 0.4900000000000113709 ) ;
#169 = APPROVAL_ROLE ( '' ) ;
#170 = PRODUCT_DEFINITION ( 'UNKNOWN', '', #243, #80 ) ;
#171 = PERSON_AND_ORGANIZATION ( #75, #175 ) ;
#172 = VECTOR ( 'NONE', #233, 39.37007874015748143 ) ;
#173 = APPLICATION_CONTEXT ( 'configuration controlled 3d designs of mechanical parts and assemblies' ) ;
#174 = CIRCLE ( 'NONE', #109, 0.5000000000000000000 ) ;
#175 = ORGANIZATION ( 'UNSPECIFIED', 'UNSPECIFIED', '' ) ;
#176 = CARTESIAN_POINT ( 'NONE',  ( 12.00000000000000178, 0.000000000000000000, 0.000000000000000000 ) ) ;
#177 = APPLICATION_CONTEXT ( 'configuration controlled 3d designs of mechanical parts and assemblies' ) ;
#178 = DIRECTION ( 'NONE',  ( 0.000000000000000000, 0.000000000000000000, -1.000000000000000000 ) ) ;
#179 = ORIENTED_EDGE ( 'NONE', *, *, #69, .F. ) ;
#180 = CC_DESIGN_DATE_AND_TIME_ASSIGNMENT ( #125, #105, ( #170 ) ) ;
#181 = CARTESIAN_POINT ( 'NONE',  ( -11.98999999999998067, 0.000000000000000000, 0.000000000000000000 ) ) ;
#182 = ORIENTED_EDGE ( 'NONE', *, *, #277, .T. ) ;
#183 = CARTESIAN_POINT ( 'NONE',  ( 12.00000000000000178, 0.000000000000000000, 0.4900000000000113709 ) ) ;
#184 = CARTESIAN_POINT ( 'NONE',  ( 12.00000000000000178, 0.000000000000000000, 0.000000000000000000 ) ) ;
#185 = CARTESIAN_POINT ( 'NONE',  ( -12.00000000000000178, 0.000000000000000000, -0.4899999999999807843 ) ) ;
#186 = CALENDAR_DATE ( 2023, 7, 6 ) ;
#187 = DIRECTION ( 'NONE',  ( -1.000000000000000000, -0.000000000000000000, -0.000000000000000000 ) ) ;
#188 = CIRCLE ( 'NONE', #104, 0.4899999999999807843 ) ;
#189 = ADVANCED_BREP_SHAPE_REPRESENTATION ( 'NIL16-024.000-SL', ( #24, #48 ), #213 ) ;
#190 = CALENDAR_DATE ( 2023, 7, 6 ) ;
#191 = PERSON_AND_ORGANIZATION ( #75, #175 ) ;
#192 = ADVANCED_FACE ( 'NONE', ( #232 ), #204, .T. ) ;
#193 = PERSON_AND_ORGANIZATION ( #75, #175 ) ;
#194 = DIMENSIONAL_EXPONENTS ( 1.000000000000000000, 0.000000000000000000, 0.000000000000000000, 0.000000000000000000, 0.000000000000000000, 0.000000000000000000, 0.000000000000000000 ) ;
#195 = DATE_AND_TIME ( #1, #26 ) ;
#196 = ADVANCED_FACE ( 'NONE', ( #94 ), #18, .T. ) ;
#197 = VERTEX_POINT ( 'NONE', #228 ) ;
#198 = AXIS2_PLACEMENT_3D ( 'NONE', #59, #96, #5 ) ;
#199 = AXIS2_PLACEMENT_3D ( 'NONE', #181, #131, #7 ) ;
#200 = DIRECTION ( 'NONE',  ( 1.000000000000000000, -0.000000000000000000, -0.000000000000000000 ) ) ;
#201 = EDGE_LOOP ( 'NONE', ( #159, #100, #140, #77 ) ) ;
#202 = FACE_OUTER_BOUND ( 'NONE', #30, .T. ) ;
#203 = ORIENTED_EDGE ( 'NONE', *, *, #49, .F. ) ;
#204 = CYLINDRICAL_SURFACE ( 'NONE', #54, 0.5000000000000000000 ) ;
#205 = VERTEX_POINT ( 'NONE', #263 ) ;
#206 = DIRECTION ( 'NONE',  ( 1.000000000000000000, 0.000000000000000000, 0.000000000000000000 ) ) ;
#207 = ORIENTED_EDGE ( 'NONE', *, *, #231, .F. ) ;
#208 = LINE ( 'NONE', #271, #91 ) ;
#209 = PERSON_AND_ORGANIZATION ( #75, #175 ) ;
#210 = VECTOR ( 'NONE', #187, 39.37007874015748143 ) ;
#211 = FACE_OUTER_BOUND ( 'NONE', #92, .T. ) ;
#212 = CC_DESIGN_SECURITY_CLASSIFICATION ( #68, ( #243 ) ) ;
#213 =( GEOMETRIC_REPRESENTATION_CONTEXT ( 3 ) GLOBAL_UNCERTAINTY_ASSIGNED_CONTEXT ( ( #217 ) ) GLOBAL_UNIT_ASSIGNED_CONTEXT ( ( #107, #274, #166 ) ) REPRESENTATION_CONTEXT ( 'NONE', 'WORKASPACE' ) );
#214 = MECHANICAL_CONTEXT ( 'NONE', #173, 'mechanical' ) ;
#215 = EDGE_CURVE ( 'NONE', #197, #267, #88, .T. ) ;
#216 = APPLICATION_PROTOCOL_DEFINITION ( 'international standard', 'config_control_design', 1994, #173 ) ;
#217 = UNCERTAINTY_MEASURE_WITH_UNIT (LENGTH_MEASURE( 1.000000000000000082E-05 ), #107, 'distance_accuracy_value', 'NONE');
#218 = PERSON_AND_ORGANIZATION_ROLE ( 'classification_officer' ) ;
#219 = ADVANCED_FACE ( 'NONE', ( #98 ), #55, .T. ) ;
#220 = AXIS2_PLACEMENT_3D ( 'NONE', #250, #111, #70 ) ;
#221 = ADVANCED_FACE ( 'NONE', ( #202 ), #163, .T. ) ;
#222 = EDGE_LOOP ( 'NONE', ( #179, #133, #128, #249 ) ) ;
#223 = CONICAL_SURFACE ( 'NONE', #241, 0.4900000000000113709, 0.7853981633974722598 ) ;
#224 = DIRECTION ( 'NONE',  ( 1.000000000000000000, 0.000000000000000000, 0.000000000000000000 ) ) ;
#225 = DIRECTION ( 'NONE',  ( -1.000000000000000000, 0.000000000000000000, 0.000000000000000000 ) ) ;
#226 = LOCAL_TIME ( 8, 31, 7.000000000000000000, #278 ) ;
#227 = ORIENTED_EDGE ( 'NONE', *, *, #152, .F. ) ;
#228 = CARTESIAN_POINT ( 'NONE',  ( -11.98999999999998067, 0.000000000000000000, 0.5000000000000000000 ) ) ;
#229 = ORIENTED_EDGE ( 'NONE', *, *, #157, .F. ) ;
#230 = CARTESIAN_POINT ( 'NONE',  ( -12.00000000000000178, 0.000000000000000000, 0.000000000000000000 ) ) ;
#231 = EDGE_CURVE ( 'NONE', #27, #95, #174, .T. ) ;
#232 = FACE_OUTER_BOUND ( 'NONE', #222, .T. ) ;
#233 = DIRECTION ( 'NONE',  ( -0.7071067811865305863, 8.659560562355139934E-17, -0.7071067811865644481 ) ) ;
#234 = AXIS2_PLACEMENT_3D ( 'NONE', #9, #32, #53 ) ;
#235 = LINE ( 'NONE', #82, #172 ) ;
#236 = PERSON_AND_ORGANIZATION_ROLE ( 'design_owner' ) ;
#237 = CC_DESIGN_PERSON_AND_ORGANIZATION_ASSIGNMENT ( #209, #260, ( #170 ) ) ;
#238 = SECURITY_CLASSIFICATION_LEVEL ( 'unclassified' ) ;
#239 = AXIS2_PLACEMENT_3D ( 'NONE', #162, #200, #132 ) ;
#240 = LENGTH_MEASURE_WITH_UNIT ( LENGTH_MEASURE( 0.02539999999999999897 ), #13 );
#241 = AXIS2_PLACEMENT_3D ( 'NONE', #17, #65, #103 ) ;
#242 = EDGE_CURVE ( 'NONE', #116, #197, #134, .T. ) ;
#243 = PRODUCT_DEFINITION_FORMATION_WITH_SPECIFIED_SOURCE ( 'ANY', '', #71, .NOT_KNOWN. ) ;
#244 = SHAPE_DEFINITION_REPRESENTATION ( #145, #189 ) ;
#245 = EDGE_LOOP ( 'NONE', ( #227, #12, #207, #6 ) ) ;
#246 = CONICAL_SURFACE ( 'NONE', #239, 0.5000000000000000000, 0.7853981633973630139 ) ;
#247 = CARTESIAN_POINT ( 'NONE',  ( -11.98999999999998067, 0.000000000000000000, 0.000000000000000000 ) ) ;
#248 = DIRECTION ( 'NONE',  ( 0.000000000000000000, 0.000000000000000000, 1.000000000000000000 ) ) ;
#249 = ORIENTED_EDGE ( 'NONE', *, *, #215, .T. ) ;
#250 = CARTESIAN_POINT ( 'NONE',  ( 12.00000000000000178, 0.000000000000000000, 0.000000000000000000 ) ) ;
#251 = ORIENTED_EDGE ( 'NONE', *, *, #231, .T. ) ;
#252 = DIRECTION ( 'NONE',  ( -1.000000000000000000, -0.000000000000000000, -0.000000000000000000 ) ) ;
#253 = DIRECTION ( 'NONE',  ( 0.000000000000000000, 0.000000000000000000, -1.000000000000000000 ) ) ;
#254 = DIRECTION ( 'NONE',  ( 0.000000000000000000, 0.000000000000000000, 1.000000000000000000 ) ) ;
#255 = CARTESIAN_POINT ( 'NONE',  ( -11.98999999999998067, 0.000000000000000000, 0.000000000000000000 ) ) ;
#256 = EDGE_LOOP ( 'NONE', ( #52, #79 ) ) ;
#257 = CC_DESIGN_PERSON_AND_ORGANIZATION_ASSIGNMENT ( #193, #236, ( #71 ) ) ;
#258 = DATE_AND_TIME ( #190, #150 ) ;
#259 = ADVANCED_FACE ( 'NONE', ( #117 ), #139, .T. ) ;
#260 = PERSON_AND_ORGANIZATION_ROLE ( 'creator' ) ;
#261 = CC_DESIGN_APPROVAL ( #126, ( #243 ) ) ;
#262 = ADVANCED_FACE ( 'NONE', ( #81 ), #136, .F. ) ;
#263 = CARTESIAN_POINT ( 'NONE',  ( 12.00000000000000178, 0.000000000000000000, 0.4900000000000113709 ) ) ;
#264 = CARTESIAN_POINT ( 'NONE',  ( 11.99000000000001265, 0.000000000000000000, 0.000000000000000000 ) ) ;
#265 = ORIENTED_EDGE ( 'NONE', *, *, #242, .T. ) ;
#266 = CARTESIAN_POINT ( 'NONE',  ( -11.98999999999998067, 6.123233995736766036E-17, 0.5000000000000000000 ) ) ;
#267 = VERTEX_POINT ( 'NONE', #11 ) ;
#268 = DIRECTION ( 'NONE',  ( 0.000000000000000000, 0.000000000000000000, -1.000000000000000000 ) ) ;
#269 = ORIENTED_EDGE ( 'NONE', *, *, #110, .F. ) ;
#270 = DIRECTION ( 'NONE',  ( 0.000000000000000000, 0.000000000000000000, -1.000000000000000000 ) ) ;
#271 = CARTESIAN_POINT ( 'NONE',  ( 12.00000000000000178, 6.123233995736764803E-17, -0.5000000000000000000 ) ) ;
#272 = CARTESIAN_POINT ( 'NONE',  ( 12.00000000000000178, 6.062001655779467536E-17, -0.4900000000000113709 ) ) ;
#273 = EDGE_CURVE ( 'NONE', #205, #27, #99, .T. ) ;
#274 =( NAMED_UNIT ( * ) PLANE_ANGLE_UNIT ( ) SI_UNIT ( $, .RADIAN. ) );
#275 = PERSON_AND_ORGANIZATION ( #75, #175 ) ;
#276 = APPROVAL_STATUS ( 'not_yet_approved' ) ;
#277 = EDGE_CURVE ( 'NONE', #57, #116, #188, .T. ) ;
#278 = COORDINATED_UNIVERSAL_TIME_OFFSET ( 5, 0, .BEHIND. ) ;
ENDSEC;
END-ISO-10303-21;
