ISO-10303-21;
HEADER;
FILE_DESCRIPTION (( 'STEP AP203' ),
    '1' );
FILE_NAME ('NIL16-012.000-SL.step',
    '2023-06-07T12:31:02',
    ( '' ),
    ( '' ),
    'SwSTEP 2.0',
    'SolidWorks 2021',
    '' );
FILE_SCHEMA (( 'CONFIG_CONTROL_DESIGN' ));
ENDSEC;

DATA;
#1 = EDGE_CURVE ( 'NONE', #131, #202, #98, .T. ) ;
#2 = PERSON_AND_ORGANIZATION_ROLE ( 'creator' ) ;
#3 = COORDINATED_UNIVERSAL_TIME_OFFSET ( 5, 0, .BEHIND. ) ;
#4 = ORIENTED_EDGE ( 'NONE', *, *, #5, .T. ) ;
#5 = EDGE_CURVE ( 'NONE', #44, #9, #260, .T. ) ;
#6 = CARTESIAN_POINT ( 'NONE',  ( -5.989999999999990443, 0.000000000000000000, 0.5000000000000000000 ) ) ;
#7 = AXIS2_PLACEMENT_3D ( 'NONE', #164, #97, #139 ) ;
#8 = CARTESIAN_POINT ( 'NONE',  ( -6.000000000000000888, 0.000000000000000000, 0.000000000000000000 ) ) ;
#9 = VERTEX_POINT ( 'NONE', #6 ) ;
#10 = CALENDAR_DATE ( 2023, 7, 6 ) ;
#11 = ORIENTED_EDGE ( 'NONE', *, *, #180, .T. ) ;
#12 = LINE ( 'NONE', #268, #94 ) ;
#13 = CARTESIAN_POINT ( 'NONE',  ( 6.000000000000000888, 0.000000000000000000, 0.000000000000000000 ) ) ;
#14 = CARTESIAN_POINT ( 'NONE',  ( 6.000000000000000888, 6.062001655779420698E-17, -0.4900000000000037104 ) ) ;
#15 = FACE_OUTER_BOUND ( 'NONE', #241, .T. ) ;
#16 = CARTESIAN_POINT ( 'NONE',  ( -5.989999999999990443, 0.000000000000000000, -0.5000000000000000000 ) ) ;
#17 = DIRECTION ( 'NONE',  ( 1.000000000000000000, 0.000000000000000000, 0.000000000000000000 ) ) ;
#18 = CALENDAR_DATE ( 2023, 7, 6 ) ;
#19 = ORGANIZATION ( 'UNSPECIFIED', 'UNSPECIFIED', '' ) ;
#20 = DATE_AND_TIME ( #51, #239 ) ;
#21 = EDGE_CURVE ( 'NONE', #27, #38, #255, .T. ) ;
#22 = COORDINATED_UNIVERSAL_TIME_OFFSET ( 5, 0, .BEHIND. ) ;
#23 = ORIENTED_EDGE ( 'NONE', *, *, #216, .T. ) ;
#24 = ORIENTED_EDGE ( 'NONE', *, *, #166, .F. ) ;
#25 = AXIS2_PLACEMENT_3D ( 'NONE', #237, #34, #79 ) ;
#26 = VERTEX_POINT ( 'NONE', #261 ) ;
#27 = VERTEX_POINT ( 'NONE', #63 ) ;
#28 = ORIENTED_EDGE ( 'NONE', *, *, #186, .T. ) ;
#29 = DIRECTION ( 'NONE',  ( -0.7071067811865692221, 0.000000000000000000, 0.7071067811865257013 ) ) ;
#30 = LINE ( 'NONE', #16, #162 ) ;
#31 = PLANE ( 'NONE',  #147 ) ;
#32 = DIRECTION ( 'NONE',  ( 0.000000000000000000, 0.000000000000000000, -1.000000000000000000 ) ) ;
#33 = EDGE_CURVE ( 'NONE', #65, #26, #71, .T. ) ;
#34 = DIRECTION ( 'NONE',  ( 1.000000000000000000, -0.000000000000000000, -0.000000000000000000 ) ) ;
#35 = APPROVAL ( #215, 'UNSPECIFIED' ) ;
#36 = PERSON_AND_ORGANIZATION ( #152, #19 ) ;
#37 = CIRCLE ( 'NONE', #178, 0.5000000000000000000 ) ;
#38 = VERTEX_POINT ( 'NONE', #203 ) ;
#39 = ORIENTED_EDGE ( 'NONE', *, *, #195, .F. ) ;
#40 = APPLICATION_CONTEXT ( 'configuration controlled 3d designs of mechanical parts and assemblies' ) ;
#41 = DIRECTION ( 'NONE',  ( 1.000000000000000000, 0.000000000000000000, 0.000000000000000000 ) ) ;
#42 = ADVANCED_FACE ( 'NONE', ( #160 ), #112, .T. ) ;
#43 = AXIS2_PLACEMENT_3D ( 'NONE', #240, #219, #90 ) ;
#44 = VERTEX_POINT ( 'NONE', #184 ) ;
#45 = DIRECTION ( 'NONE',  ( 1.000000000000000000, 0.000000000000000000, 0.000000000000000000 ) ) ;
#46 = CARTESIAN_POINT ( 'NONE',  ( 6.000000000000000888, 6.123233995736764803E-17, -0.5000000000000000000 ) ) ;
#47 = FACE_OUTER_BOUND ( 'NONE', #157, .T. ) ;
#48 = FACE_OUTER_BOUND ( 'NONE', #137, .T. ) ;
#49 = CARTESIAN_POINT ( 'NONE',  ( 6.000000000000000888, 0.000000000000000000, 0.000000000000000000 ) ) ;
#50 = PRODUCT ( 'NIL16-012.000-SL', 'NIL16-012.000-SL', '', ( #101 ) ) ;
#51 = CALENDAR_DATE ( 2023, 7, 6 ) ;
#52 = EDGE_CURVE ( 'NONE', #26, #65, #37, .T. ) ;
#53 = FACE_OUTER_BOUND ( 'NONE', #174, .T. ) ;
#54 = CC_DESIGN_APPROVAL ( #123, ( #133 ) ) ;
#55 =( NAMED_UNIT ( * ) SI_UNIT ( $, .STERADIAN. ) SOLID_ANGLE_UNIT ( ) );
#56 = APPROVAL_ROLE ( '' ) ;
#57 = APPROVAL_PERSON_ORGANIZATION ( #172, #123, #103 ) ;
#58 = EDGE_CURVE ( 'NONE', #202, #131, #171, .T. ) ;
#59 = SHAPE_DEFINITION_REPRESENTATION ( #276, #191 ) ;
#60 = EDGE_LOOP ( 'NONE', ( #224, #197, #263, #39 ) ) ;
#61 = AXIS2_PLACEMENT_3D ( 'NONE', #128, #190, #17 ) ;
#62 = APPLICATION_CONTEXT ( 'configuration controlled 3d designs of mechanical parts and assemblies' ) ;
#63 = CARTESIAN_POINT ( 'NONE',  ( -6.000000000000000888, 0.000000000000000000, -0.4899999999999906097 ) ) ;
#64 = COORDINATED_UNIVERSAL_TIME_OFFSET ( 5, 0, .BEHIND. ) ;
#65 = VERTEX_POINT ( 'NONE', #244 ) ;
#66 = ORIENTED_EDGE ( 'NONE', *, *, #33, .F. ) ;
#67 = AXIS2_PLACEMENT_3D ( 'NONE', #49, #246, #70 ) ;
#68 = EDGE_LOOP ( 'NONE', ( #132, #158, #4, #135 ) ) ;
#69 = PLANE ( 'NONE',  #7 ) ;
#70 = DIRECTION ( 'NONE',  ( 0.000000000000000000, 0.000000000000000000, 1.000000000000000000 ) ) ;
#71 = CIRCLE ( 'NONE', #43, 0.5000000000000000000 ) ;
#72 = CARTESIAN_POINT ( 'NONE',  ( 6.000000000000000888, 0.000000000000000000, 0.5000000000000000000 ) ) ;
#73 = CARTESIAN_POINT ( 'NONE',  ( 6.000000000000000888, 0.000000000000000000, 0.000000000000000000 ) ) ;
#74 = CC_DESIGN_PERSON_AND_ORGANIZATION_ASSIGNMENT ( #188, #277, ( #133 ) ) ;
#75 = DIRECTION ( 'NONE',  ( 1.000000000000000000, -0.000000000000000000, -0.000000000000000000 ) ) ;
#76 = DIRECTION ( 'NONE',  ( 0.000000000000000000, 0.000000000000000000, 1.000000000000000000 ) ) ;
#77 = VECTOR ( 'NONE', #29, 39.37007874015748854 ) ;
#78 = ADVANCED_FACE ( 'NONE', ( #47 ), #31, .F. ) ;
#79 = DIRECTION ( 'NONE',  ( 0.000000000000000000, 0.000000000000000000, -1.000000000000000000 ) ) ;
#80 = PERSON_AND_ORGANIZATION_ROLE ( 'design_supplier' ) ;
#81 = APPROVAL_PERSON_ORGANIZATION ( #114, #107, #262 ) ;
#82 =( CONVERSION_BASED_UNIT ( 'INCH', #150 ) LENGTH_UNIT ( ) NAMED_UNIT ( #217 ) );
#83 = AXIS2_PLACEMENT_3D ( 'NONE', #181, #204, #32 ) ;
#84 = DATE_AND_TIME ( #251, #235 ) ;
#85 = EDGE_CURVE ( 'NONE', #26, #9, #120, .T. ) ;
#86 = DATE_AND_TIME ( #196, #138 ) ;
#87 = DIRECTION ( 'NONE',  ( 0.000000000000000000, 0.000000000000000000, -1.000000000000000000 ) ) ;
#88 = DIRECTION ( 'NONE',  ( -1.000000000000000000, -0.000000000000000000, -0.000000000000000000 ) ) ;
#89 = AXIS2_PLACEMENT_3D ( 'NONE', #8, #88, #175 ) ;
#90 = DIRECTION ( 'NONE',  ( 0.000000000000000000, 0.000000000000000000, -1.000000000000000000 ) ) ;
#91 = EDGE_LOOP ( 'NONE', ( #264, #259, #198, #66 ) ) ;
#92 = DATE_TIME_ROLE ( 'classification_date' ) ;
#93 = ORIENTED_EDGE ( 'NONE', *, *, #52, .F. ) ;
#94 = VECTOR ( 'NONE', #122, 39.37007874015748854 ) ;
#95 = DIRECTION ( 'NONE',  ( 1.000000000000000000, -0.000000000000000000, -0.000000000000000000 ) ) ;
#96 = DIRECTION ( 'NONE',  ( -1.000000000000000000, -0.000000000000000000, -0.000000000000000000 ) ) ;
#97 = DIRECTION ( 'NONE',  ( 1.000000000000000000, 0.000000000000000000, 0.000000000000000000 ) ) ;
#98 = CIRCLE ( 'NONE', #124, 0.4900000000000037104 ) ;
#99 = CARTESIAN_POINT ( 'NONE',  ( -5.989999999999990443, 0.000000000000000000, 0.000000000000000000 ) ) ;
#100 = LINE ( 'NONE', #272, #193 ) ;
#101 = MECHANICAL_CONTEXT ( 'NONE', #40, 'mechanical' ) ;
#102 = APPROVAL_DATE_TIME ( #189, #123 ) ;
#103 = APPROVAL_ROLE ( '' ) ;
#104 =( LENGTH_UNIT ( ) NAMED_UNIT ( * ) SI_UNIT ( $, .METRE. ) );
#105 = EDGE_CURVE ( 'NONE', #38, #9, #100, .T. ) ;
#106 = APPROVAL_DATE_TIME ( #20, #35 ) ;
#107 = APPROVAL ( #220, 'UNSPECIFIED' ) ;
#108 = AXIS2_PLACEMENT_3D ( 'NONE', #273, #75, #205 ) ;
#109 = CARTESIAN_POINT ( 'NONE',  ( 6.000000000000000888, 0.000000000000000000, 0.000000000000000000 ) ) ;
#110 = LOCAL_TIME ( 8, 31, 2.000000000000000000, #211 ) ;
#111 = ORIENTED_EDGE ( 'NONE', *, *, #85, .T. ) ;
#112 = CONICAL_SURFACE ( 'NONE', #243, 0.5000000000000000000, 0.7853981633974175258 ) ;
#113 = APPROVAL_DATE_TIME ( #86, #107 ) ;
#114 = PERSON_AND_ORGANIZATION ( #152, #19 ) ;
#115 = ORIENTED_EDGE ( 'NONE', *, *, #21, .F. ) ;
#116 = CYLINDRICAL_SURFACE ( 'NONE', #208, 0.5000000000000000000 ) ;
#117 = VECTOR ( 'NONE', #96, 39.37007874015748143 ) ;
#118 = DIRECTION ( 'NONE',  ( 1.000000000000000000, 0.000000000000000000, 0.000000000000000000 ) ) ;
#119 = CARTESIAN_POINT ( 'NONE',  ( 6.000000000000000888, 0.000000000000000000, 0.4900000000000037104 ) ) ;
#120 = LINE ( 'NONE', #72, #250 ) ;
#121 = UNCERTAINTY_MEASURE_WITH_UNIT (LENGTH_MEASURE( 1.000000000000000082E-05 ), #82, 'distance_accuracy_value', 'NONE');
#122 = DIRECTION ( 'NONE',  ( -0.7071067811865692221, 8.659560562354665385E-17, -0.7071067811865257013 ) ) ;
#123 = APPROVAL ( #258, 'UNSPECIFIED' ) ;
#124 = AXIS2_PLACEMENT_3D ( 'NONE', #109, #41, #134 ) ;
#125 = DIRECTION ( 'NONE',  ( -1.000000000000000000, -0.000000000000000000, -0.000000000000000000 ) ) ;
#126 = MANIFOLD_SOLID_BREP ( 'Chamfer1', #199 ) ;
#127 = ADVANCED_FACE ( 'NONE', ( #15 ), #69, .T. ) ;
#128 = CARTESIAN_POINT ( 'NONE',  ( 0.000000000000000000, 0.000000000000000000, 0.000000000000000000 ) ) ;
#129 = AXIS2_PLACEMENT_3D ( 'NONE', #249, #225, #210 ) ;
#130 = ADVANCED_FACE ( 'NONE', ( #141 ), #116, .T. ) ;
#131 = VERTEX_POINT ( 'NONE', #182 ) ;
#132 = ORIENTED_EDGE ( 'NONE', *, *, #52, .T. ) ;
#133 = PRODUCT_DEFINITION_FORMATION_WITH_SPECIFIED_SOURCE ( 'ANY', '', #50, .NOT_KNOWN. ) ;
#134 = DIRECTION ( 'NONE',  ( 0.000000000000000000, 0.000000000000000000, -1.000000000000000000 ) ) ;
#135 = ORIENTED_EDGE ( 'NONE', *, *, #85, .F. ) ;
#136 = PRODUCT_RELATED_PRODUCT_CATEGORY ( 'detail', '', ( #50 ) ) ;
#137 = EDGE_LOOP ( 'NONE', ( #155, #28, #93, #24 ) ) ;
#138 = LOCAL_TIME ( 8, 31, 2.000000000000000000, #64 ) ;
#139 = DIRECTION ( 'NONE',  ( 0.000000000000000000, 0.000000000000000000, -1.000000000000000000 ) ) ;
#140 = CARTESIAN_POINT ( 'NONE',  ( -6.000000000000000888, 0.000000000000000000, 0.000000000000000000 ) ) ;
#141 = FACE_OUTER_BOUND ( 'NONE', #68, .T. ) ;
#142 = DIRECTION ( 'NONE',  ( 0.7071067811865692221, 8.659560562354665385E-17, 0.7071067811865257013 ) ) ;
#143 = CONICAL_SURFACE ( 'NONE', #129, 0.4900000000000037104, 0.7853981633974175258 ) ;
#144 = DIRECTION ( 'NONE',  ( -1.000000000000000000, 0.000000000000000000, 0.000000000000000000 ) ) ;
#145 = DATE_TIME_ROLE ( 'creation_date' ) ;
#146 = CARTESIAN_POINT ( 'NONE',  ( 6.000000000000000888, 0.000000000000000000, 0.000000000000000000 ) ) ;
#147 = AXIS2_PLACEMENT_3D ( 'NONE', #140, #45, #228 ) ;
#148 = ADVANCED_FACE ( 'NONE', ( #48 ), #143, .T. ) ;
#149 = CC_DESIGN_PERSON_AND_ORGANIZATION_ASSIGNMENT ( #192, #2, ( #213 ) ) ;
#150 = LENGTH_MEASURE_WITH_UNIT ( LENGTH_MEASURE( 0.02539999999999999897 ), #104 );
#151 = CC_DESIGN_APPROVAL ( #35, ( #213 ) ) ;
#152 = PERSON ( 'UNSPECIFIED', 'UNSPECIFIED', 'UNSPECIFIED', ('UNSPECIFIED'), ('UNSPECIFIED'), ('UNSPECIFIED') ) ;
#153 = DIRECTION ( 'NONE',  ( 1.000000000000000000, -0.000000000000000000, -0.000000000000000000 ) ) ;
#154 = CONICAL_SURFACE ( 'NONE', #25, 0.5000000000000000000, 0.7853981633974175258 ) ;
#155 = ORIENTED_EDGE ( 'NONE', *, *, #58, .F. ) ;
#156 = DATE_AND_TIME ( #10, #214 ) ;
#157 = EDGE_LOOP ( 'NONE', ( #159, #11 ) ) ;
#158 = ORIENTED_EDGE ( 'NONE', *, *, #169, .T. ) ;
#159 = ORIENTED_EDGE ( 'NONE', *, *, #21, .T. ) ;
#160 = FACE_OUTER_BOUND ( 'NONE', #60, .T. ) ;
#161 = DIRECTION ( 'NONE',  ( -1.000000000000000000, -0.000000000000000000, -0.000000000000000000 ) ) ;
#162 = VECTOR ( 'NONE', #233, 39.37007874015748854 ) ;
#163 = DIRECTION ( 'NONE',  ( -1.000000000000000000, -0.000000000000000000, -0.000000000000000000 ) ) ;
#164 = CARTESIAN_POINT ( 'NONE',  ( 6.000000000000000888, 0.000000000000000000, 0.000000000000000000 ) ) ;
#165 = CARTESIAN_POINT ( 'NONE',  ( 5.990000000000003766, 0.000000000000000000, 0.000000000000000000 ) ) ;
#166 = EDGE_CURVE ( 'NONE', #131, #26, #247, .T. ) ;
#167 = CC_DESIGN_DATE_AND_TIME_ASSIGNMENT ( #84, #145, ( #213 ) ) ;
#168 = PERSON_AND_ORGANIZATION ( #152, #19 ) ;
#169 = EDGE_CURVE ( 'NONE', #65, #44, #231, .T. ) ;
#170 = SECURITY_CLASSIFICATION_LEVEL ( 'unclassified' ) ;
#171 = CIRCLE ( 'NONE', #236, 0.4900000000000037104 ) ;
#172 = PERSON_AND_ORGANIZATION ( #152, #19 ) ;
#173 = PERSON_AND_ORGANIZATION_ROLE ( 'classification_officer' ) ;
#174 = EDGE_LOOP ( 'NONE', ( #201, #115, #221, #265 ) ) ;
#175 = DIRECTION ( 'NONE',  ( 0.000000000000000000, 0.000000000000000000, -1.000000000000000000 ) ) ;
#176 = ORIENTED_EDGE ( 'NONE', *, *, #169, .F. ) ;
#177 = ORIENTED_EDGE ( 'NONE', *, *, #33, .T. ) ;
#178 = AXIS2_PLACEMENT_3D ( 'NONE', #165, #144, #267 ) ;
#179 = FACE_OUTER_BOUND ( 'NONE', #218, .T. ) ;
#180 = EDGE_CURVE ( 'NONE', #38, #27, #271, .T. ) ;
#181 = CARTESIAN_POINT ( 'NONE',  ( -6.000000000000000888, 0.000000000000000000, 0.000000000000000000 ) ) ;
#182 = CARTESIAN_POINT ( 'NONE',  ( 6.000000000000000888, 0.000000000000000000, 0.4900000000000037104 ) ) ;
#183 = AXIS2_PLACEMENT_3D ( 'NONE', #146, #125, #76 ) ;
#184 = CARTESIAN_POINT ( 'NONE',  ( -5.989999999999990443, 6.123233995736764803E-17, -0.5000000000000000000 ) ) ;
#185 = FACE_OUTER_BOUND ( 'NONE', #91, .T. ) ;
#186 = EDGE_CURVE ( 'NONE', #202, #65, #12, .T. ) ;
#187 =( GEOMETRIC_REPRESENTATION_CONTEXT ( 3 ) GLOBAL_UNCERTAINTY_ASSIGNED_CONTEXT ( ( #121 ) ) GLOBAL_UNIT_ASSIGNED_CONTEXT ( ( #82, #252, #55 ) ) REPRESENTATION_CONTEXT ( 'NONE', 'WORKASPACE' ) );
#188 = PERSON_AND_ORGANIZATION ( #152, #19 ) ;
#189 = DATE_AND_TIME ( #18, #110 ) ;
#190 = DIRECTION ( 'NONE',  ( 0.000000000000000000, 0.000000000000000000, 1.000000000000000000 ) ) ;
#191 = ADVANCED_BREP_SHAPE_REPRESENTATION ( 'NIL16-012.000-SL', ( #126, #61 ), #187 ) ;
#192 = PERSON_AND_ORGANIZATION ( #152, #19 ) ;
#193 = VECTOR ( 'NONE', #142, 39.37007874015748854 ) ;
#194 = CARTESIAN_POINT ( 'NONE',  ( -5.989999999999990443, 0.000000000000000000, 0.000000000000000000 ) ) ;
#195 = EDGE_CURVE ( 'NONE', #27, #44, #30, .T. ) ;
#196 = CALENDAR_DATE ( 2023, 7, 6 ) ;
#197 = ORIENTED_EDGE ( 'NONE', *, *, #105, .T. ) ;
#198 = ORIENTED_EDGE ( 'NONE', *, *, #166, .T. ) ;
#199 = CLOSED_SHELL ( 'NONE', ( #42, #148, #130, #230, #127, #78, #200, #256 ) ) ;
#200 = ADVANCED_FACE ( 'NONE', ( #185 ), #227, .T. ) ;
#201 = ORIENTED_EDGE ( 'NONE', *, *, #105, .F. ) ;
#202 = VERTEX_POINT ( 'NONE', #14 ) ;
#203 = CARTESIAN_POINT ( 'NONE',  ( -6.000000000000000888, 6.062001655779340579E-17, 0.4899999999999906097 ) ) ;
#204 = DIRECTION ( 'NONE',  ( -1.000000000000000000, -0.000000000000000000, -0.000000000000000000 ) ) ;
#205 = DIRECTION ( 'NONE',  ( 0.000000000000000000, 0.000000000000000000, -1.000000000000000000 ) ) ;
#206 = SECURITY_CLASSIFICATION ( '', '', #170 ) ;
#207 = DIRECTION ( 'NONE',  ( 0.000000000000000000, 0.000000000000000000, -1.000000000000000000 ) ) ;
#208 = AXIS2_PLACEMENT_3D ( 'NONE', #13, #163, #229 ) ;
#209 = CC_DESIGN_DATE_AND_TIME_ASSIGNMENT ( #156, #92, ( #206 ) ) ;
#210 = DIRECTION ( 'NONE',  ( 0.000000000000000000, 0.000000000000000000, 1.000000000000000000 ) ) ;
#211 = COORDINATED_UNIVERSAL_TIME_OFFSET ( 5, 0, .BEHIND. ) ;
#212 = PERSON_AND_ORGANIZATION ( #152, #19 ) ;
#213 = PRODUCT_DEFINITION ( 'UNKNOWN', '', #133, #226 ) ;
#214 = LOCAL_TIME ( 8, 31, 2.000000000000000000, #3 ) ;
#215 = APPROVAL_STATUS ( 'not_yet_approved' ) ;
#216 = EDGE_CURVE ( 'NONE', #9, #44, #232, .T. ) ;
#217 = DIMENSIONAL_EXPONENTS ( 1.000000000000000000, 0.000000000000000000, 0.000000000000000000, 0.000000000000000000, 0.000000000000000000, 0.000000000000000000, 0.000000000000000000 ) ;
#218 = EDGE_LOOP ( 'NONE', ( #176, #177, #111, #23 ) ) ;
#219 = DIRECTION ( 'NONE',  ( -1.000000000000000000, 0.000000000000000000, 0.000000000000000000 ) ) ;
#220 = APPROVAL_STATUS ( 'not_yet_approved' ) ;
#221 = ORIENTED_EDGE ( 'NONE', *, *, #195, .T. ) ;
#222 = CC_DESIGN_PERSON_AND_ORGANIZATION_ASSIGNMENT ( #254, #173, ( #206 ) ) ;
#223 = ORIENTED_EDGE ( 'NONE', *, *, #1, .T. ) ;
#224 = ORIENTED_EDGE ( 'NONE', *, *, #180, .F. ) ;
#225 = DIRECTION ( 'NONE',  ( -1.000000000000000000, 0.000000000000000000, 0.000000000000000000 ) ) ;
#226 = DESIGN_CONTEXT ( 'detailed design', #62, 'design' ) ;
#227 = CONICAL_SURFACE ( 'NONE', #67, 0.4900000000000037104, 0.7853981633974175258 ) ;
#228 = DIRECTION ( 'NONE',  ( 0.000000000000000000, 0.000000000000000000, -1.000000000000000000 ) ) ;
#229 = DIRECTION ( 'NONE',  ( 0.000000000000000000, 0.000000000000000000, 1.000000000000000000 ) ) ;
#230 = ADVANCED_FACE ( 'NONE', ( #179 ), #270, .T. ) ;
#231 = LINE ( 'NONE', #46, #117 ) ;
#232 = CIRCLE ( 'NONE', #108, 0.5000000000000000000 ) ;
#233 = DIRECTION ( 'NONE',  ( 0.7071067811865692221, 0.000000000000000000, -0.7071067811865257013 ) ) ;
#234 = APPLICATION_PROTOCOL_DEFINITION ( 'international standard', 'config_control_design', 1994, #62 ) ;
#235 = LOCAL_TIME ( 8, 31, 2.000000000000000000, #274 ) ;
#236 = AXIS2_PLACEMENT_3D ( 'NONE', #73, #118, #248 ) ;
#237 = CARTESIAN_POINT ( 'NONE',  ( -5.989999999999990443, 0.000000000000000000, 0.000000000000000000 ) ) ;
#238 = PERSON_AND_ORGANIZATION_ROLE ( 'design_owner' ) ;
#239 = LOCAL_TIME ( 8, 31, 2.000000000000000000, #22 ) ;
#240 = CARTESIAN_POINT ( 'NONE',  ( 5.990000000000003766, 0.000000000000000000, 0.000000000000000000 ) ) ;
#241 = EDGE_LOOP ( 'NONE', ( #223, #242 ) ) ;
#242 = ORIENTED_EDGE ( 'NONE', *, *, #58, .T. ) ;
#243 = AXIS2_PLACEMENT_3D ( 'NONE', #99, #95, #207 ) ;
#244 = CARTESIAN_POINT ( 'NONE',  ( 5.990000000000003766, 6.123233995736764803E-17, -0.5000000000000000000 ) ) ;
#245 = APPROVAL_PERSON_ORGANIZATION ( #36, #35, #56 ) ;
#246 = DIRECTION ( 'NONE',  ( -1.000000000000000000, 0.000000000000000000, 0.000000000000000000 ) ) ;
#247 = LINE ( 'NONE', #119, #77 ) ;
#248 = DIRECTION ( 'NONE',  ( 0.000000000000000000, 0.000000000000000000, -1.000000000000000000 ) ) ;
#249 = CARTESIAN_POINT ( 'NONE',  ( 6.000000000000000888, 0.000000000000000000, 0.000000000000000000 ) ) ;
#250 = VECTOR ( 'NONE', #161, 39.37007874015748143 ) ;
#251 = CALENDAR_DATE ( 2023, 7, 6 ) ;
#252 =( NAMED_UNIT ( * ) PLANE_ANGLE_UNIT ( ) SI_UNIT ( $, .RADIAN. ) );
#253 = CC_DESIGN_APPROVAL ( #107, ( #206 ) ) ;
#254 = PERSON_AND_ORGANIZATION ( #152, #19 ) ;
#255 = CIRCLE ( 'NONE', #89, 0.4899999999999906097 ) ;
#256 = ADVANCED_FACE ( 'NONE', ( #53 ), #154, .T. ) ;
#257 = CC_DESIGN_PERSON_AND_ORGANIZATION_ASSIGNMENT ( #168, #80, ( #133 ) ) ;
#258 = APPROVAL_STATUS ( 'not_yet_approved' ) ;
#259 = ORIENTED_EDGE ( 'NONE', *, *, #1, .F. ) ;
#260 = CIRCLE ( 'NONE', #266, 0.5000000000000000000 ) ;
#261 = CARTESIAN_POINT ( 'NONE',  ( 5.990000000000003766, 0.000000000000000000, 0.5000000000000000000 ) ) ;
#262 = APPROVAL_ROLE ( '' ) ;
#263 = ORIENTED_EDGE ( 'NONE', *, *, #5, .F. ) ;
#264 = ORIENTED_EDGE ( 'NONE', *, *, #186, .F. ) ;
#265 = ORIENTED_EDGE ( 'NONE', *, *, #216, .F. ) ;
#266 = AXIS2_PLACEMENT_3D ( 'NONE', #194, #153, #87 ) ;
#267 = DIRECTION ( 'NONE',  ( 0.000000000000000000, 0.000000000000000000, -1.000000000000000000 ) ) ;
#268 = CARTESIAN_POINT ( 'NONE',  ( 6.000000000000000888, 6.000769315822076592E-17, -0.4900000000000037104 ) ) ;
#269 = CC_DESIGN_SECURITY_CLASSIFICATION ( #206, ( #133 ) ) ;
#270 = CYLINDRICAL_SURFACE ( 'NONE', #183, 0.5000000000000000000 ) ;
#271 = CIRCLE ( 'NONE', #83, 0.4899999999999906097 ) ;
#272 = CARTESIAN_POINT ( 'NONE',  ( -5.989999999999990443, 6.123233995736766036E-17, 0.5000000000000000000 ) ) ;
#273 = CARTESIAN_POINT ( 'NONE',  ( -5.989999999999990443, 0.000000000000000000, 0.000000000000000000 ) ) ;
#274 = COORDINATED_UNIVERSAL_TIME_OFFSET ( 5, 0, .BEHIND. ) ;
#275 = CC_DESIGN_PERSON_AND_ORGANIZATION_ASSIGNMENT ( #212, #238, ( #50 ) ) ;
#276 = PRODUCT_DEFINITION_SHAPE ( 'NONE', 'NONE',  #213 ) ;
#277 = PERSON_AND_ORGANIZATION_ROLE ( 'creator' ) ;
#278 = APPLICATION_PROTOCOL_DEFINITION ( 'international standard', 'config_control_design', 1994, #40 ) ;
ENDSEC;
END-ISO-10303-21;
