ISO-10303-21;
HEADER;
FILE_DESCRIPTION (( 'STEP AP203' ),
    '1' );
FILE_NAME ('NIL12SS-036.000-SL.step',
    '2023-06-07T12:30:56',
    ( '' ),
    ( '' ),
    'SwSTEP 2.0',
    'SolidWorks 2021',
    '' );
FILE_SCHEMA (( 'CONFIG_CONTROL_DESIGN' ));
ENDSEC;

DATA;
#1 =( NAMED_UNIT ( * ) PLANE_ANGLE_UNIT ( ) SI_UNIT ( $, .RADIAN. ) );
#2 = APPROVAL_STATUS ( 'not_yet_approved' ) ;
#3 = EDGE_CURVE ( 'NONE', #116, #89, #113, .T. ) ;
#4 = CC_DESIGN_PERSON_AND_ORGANIZATION_ASSIGNMENT ( #262, #67, ( #186 ) ) ;
#5 = AXIS2_PLACEMENT_3D ( 'NONE', #48, #184, #223 ) ;
#6 = VECTOR ( 'NONE', #52, 39.37007874015748143 ) ;
#7 = ORIENTED_EDGE ( 'NONE', *, *, #82, .T. ) ;
#8 = COORDINATED_UNIVERSAL_TIME_OFFSET ( 5, 0, .BEHIND. ) ;
#9 = ORIENTED_EDGE ( 'NONE', *, *, #264, .T. ) ;
#10 = EDGE_LOOP ( 'NONE', ( #200, #93, #134, #259 ) ) ;
#11 = VECTOR ( 'NONE', #269, 39.37007874015748143 ) ;
#12 = DIRECTION ( 'NONE',  ( 0.000000000000000000, 0.000000000000000000, -1.000000000000000000 ) ) ;
#13 = APPROVAL_PERSON_ORGANIZATION ( #235, #49, #159 ) ;
#14 = DIRECTION ( 'NONE',  ( 0.000000000000000000, 0.000000000000000000, -1.000000000000000000 ) ) ;
#15 = ORIENTED_EDGE ( 'NONE', *, *, #153, .T. ) ;
#16 = LINE ( 'NONE', #136, #6 ) ;
#17 = CIRCLE ( 'NONE', #274, 0.3750000000000000555 ) ;
#18 = AXIS2_PLACEMENT_3D ( 'NONE', #241, #140, #209 ) ;
#19 = CIRCLE ( 'NONE', #87, 0.3750000000000000555 ) ;
#20 = LINE ( 'NONE', #211, #72 ) ;
#21 = DIRECTION ( 'NONE',  ( 0.000000000000000000, 0.000000000000000000, -1.000000000000000000 ) ) ;
#22 = ORIENTED_EDGE ( 'NONE', *, *, #264, .F. ) ;
#23 = ORIENTED_EDGE ( 'NONE', *, *, #188, .F. ) ;
#24 = LOCAL_TIME ( 8, 30, 56.00000000000000000, #109 ) ;
#25 = ADVANCED_FACE ( 'NONE', ( #73 ), #242, .T. ) ;
#26 = CALENDAR_DATE ( 2023, 7, 6 ) ;
#27 = ORIENTED_EDGE ( 'NONE', *, *, #132, .F. ) ;
#28 = CC_DESIGN_APPROVAL ( #49, ( #203 ) ) ;
#29 = PERSON_AND_ORGANIZATION ( #207, #246 ) ;
#30 = ORIENTED_EDGE ( 'NONE', *, *, #258, .T. ) ;
#31 = CARTESIAN_POINT ( 'NONE',  ( 18.00000000000000000, 0.000000000000000000, 0.000000000000000000 ) ) ;
#32 = DIRECTION ( 'NONE',  ( 0.000000000000000000, 0.000000000000000000, -1.000000000000000000 ) ) ;
#33 = EDGE_CURVE ( 'NONE', #53, #116, #137, .T. ) ;
#34 = DIRECTION ( 'NONE',  ( 0.000000000000000000, 0.000000000000000000, 1.000000000000000000 ) ) ;
#35 = DIRECTION ( 'NONE',  ( -1.000000000000000000, -0.000000000000000000, -0.000000000000000000 ) ) ;
#36 = DIRECTION ( 'NONE',  ( 1.000000000000000000, -0.000000000000000000, -0.000000000000000000 ) ) ;
#37 = EDGE_CURVE ( 'NONE', #181, #53, #97, .T. ) ;
#38 = CARTESIAN_POINT ( 'NONE',  ( 18.00000000000000000, 0.000000000000000000, 0.000000000000000000 ) ) ;
#39 = DIRECTION ( 'NONE',  ( 0.000000000000000000, 0.000000000000000000, 1.000000000000000000 ) ) ;
#40 = ORIENTED_EDGE ( 'NONE', *, *, #69, .F. ) ;
#41 = PERSON_AND_ORGANIZATION_ROLE ( 'classification_officer' ) ;
#42 = APPLICATION_CONTEXT ( 'configuration controlled 3d designs of mechanical parts and assemblies' ) ;
#43 = PERSON_AND_ORGANIZATION ( #207, #246 ) ;
#44 = EDGE_CURVE ( 'NONE', #116, #53, #19, .T. ) ;
#45 = AXIS2_PLACEMENT_3D ( 'NONE', #71, #168, #14 ) ;
#46 = ORIENTED_EDGE ( 'NONE', *, *, #69, .T. ) ;
#47 = CALENDAR_DATE ( 2023, 7, 6 ) ;
#48 = CARTESIAN_POINT ( 'NONE',  ( 18.00000000000000000, 0.000000000000000000, 0.000000000000000000 ) ) ;
#49 = APPROVAL ( #2, 'UNSPECIFIED' ) ;
#50 = CARTESIAN_POINT ( 'NONE',  ( 18.00000000000000000, 4.469960816887853344E-17, -0.3650000000000011569 ) ) ;
#51 = UNCERTAINTY_MEASURE_WITH_UNIT (LENGTH_MEASURE( 1.000000000000000082E-05 ), #143, 'distance_accuracy_value', 'NONE');
#52 = DIRECTION ( 'NONE',  ( 0.7071067811865547892, 0.000000000000000000, -0.7071067811865402453 ) ) ;
#53 = VERTEX_POINT ( 'NONE', #206 ) ;
#54 = DIRECTION ( 'NONE',  ( -1.000000000000000000, -0.000000000000000000, -0.000000000000000000 ) ) ;
#55 = ADVANCED_FACE ( 'NONE', ( #119 ), #126, .T. ) ;
#56 = CYLINDRICAL_SURFACE ( 'NONE', #266, 0.3750000000000000555 ) ;
#57 =( GEOMETRIC_REPRESENTATION_CONTEXT ( 3 ) GLOBAL_UNCERTAINTY_ASSIGNED_CONTEXT ( ( #51 ) ) GLOBAL_UNIT_ASSIGNED_CONTEXT ( ( #143, #1, #125 ) ) REPRESENTATION_CONTEXT ( 'NONE', 'WORKASPACE' ) );
#58 = DIRECTION ( 'NONE',  ( 1.000000000000000000, -0.000000000000000000, -0.000000000000000000 ) ) ;
#59 = APPROVAL_PERSON_ORGANIZATION ( #260, #79, #107 ) ;
#60 = CARTESIAN_POINT ( 'NONE',  ( 18.00000000000000000, 0.000000000000000000, 0.000000000000000000 ) ) ;
#61 = CARTESIAN_POINT ( 'NONE',  ( 18.00000000000000000, 4.531193156845214090E-17, -0.3650000000000011569 ) ) ;
#62 = LOCAL_TIME ( 8, 30, 56.00000000000000000, #88 ) ;
#63 = APPROVAL_ROLE ( '' ) ;
#64 = PERSON_AND_ORGANIZATION_ROLE ( 'design_owner' ) ;
#65 = CALENDAR_DATE ( 2023, 7, 6 ) ;
#66 = ORIENTED_EDGE ( 'NONE', *, *, #44, .T. ) ;
#67 = PERSON_AND_ORGANIZATION_ROLE ( 'design_supplier' ) ;
#68 = VERTEX_POINT ( 'NONE', #114 ) ;
#69 = EDGE_CURVE ( 'NONE', #68, #89, #210, .T. ) ;
#70 = DIRECTION ( 'NONE',  ( -1.000000000000000000, -0.000000000000000000, -0.000000000000000000 ) ) ;
#71 = CARTESIAN_POINT ( 'NONE',  ( 17.98999999999999844, 0.000000000000000000, 0.000000000000000000 ) ) ;
#72 = VECTOR ( 'NONE', #278, 39.37007874015748143 ) ;
#73 = FACE_OUTER_BOUND ( 'NONE', #239, .T. ) ;
#74 = CIRCLE ( 'NONE', #86, 0.3649999999999967715 ) ;
#75 = LOCAL_TIME ( 8, 30, 56.00000000000000000, #8 ) ;
#76 = CARTESIAN_POINT ( 'NONE',  ( 17.98999999999999844, 0.000000000000000000, 0.3750000000000000555 ) ) ;
#77 = DIRECTION ( 'NONE',  ( 0.000000000000000000, 0.000000000000000000, -1.000000000000000000 ) ) ;
#78 = CARTESIAN_POINT ( 'NONE',  ( 18.00000000000000000, 4.592425496802575451E-17, -0.3750000000000000555 ) ) ;
#79 = APPROVAL ( #196, 'UNSPECIFIED' ) ;
#80 = CARTESIAN_POINT ( 'NONE',  ( -17.98999999999999844, 4.592425496802575451E-17, -0.3750000000000000555 ) ) ;
#81 = CIRCLE ( 'NONE', #144, 0.3650000000000011569 ) ;
#82 = EDGE_CURVE ( 'NONE', #181, #201, #176, .T. ) ;
#83 = CARTESIAN_POINT ( 'NONE',  ( -17.98999999999999844, 0.000000000000000000, 0.000000000000000000 ) ) ;
#84 = CALENDAR_DATE ( 2023, 7, 6 ) ;
#85 = AXIS2_PLACEMENT_3D ( 'NONE', #121, #36, #21 ) ;
#86 = AXIS2_PLACEMENT_3D ( 'NONE', #247, #35, #213 ) ;
#87 = AXIS2_PLACEMENT_3D ( 'NONE', #163, #226, #32 ) ;
#88 = COORDINATED_UNIVERSAL_TIME_OFFSET ( 5, 0, .BEHIND. ) ;
#89 = VERTEX_POINT ( 'NONE', #272 ) ;
#90 = ORIENTED_EDGE ( 'NONE', *, *, #153, .F. ) ;
#91 = DATE_AND_TIME ( #47, #62 ) ;
#92 = EDGE_LOOP ( 'NONE', ( #164, #224 ) ) ;
#93 = ORIENTED_EDGE ( 'NONE', *, *, #33, .T. ) ;
#94 = CARTESIAN_POINT ( 'NONE',  ( -18.00000000000000000, 0.000000000000000000, 0.000000000000000000 ) ) ;
#95 = DIRECTION ( 'NONE',  ( 0.7071067811865547892, 8.659560562354844111E-17, 0.7071067811865402453 ) ) ;
#96 = CC_DESIGN_APPROVAL ( #112, ( #231 ) ) ;
#97 = LINE ( 'NONE', #50, #237 ) ;
#98 = EDGE_LOOP ( 'NONE', ( #66, #30, #141, #218 ) ) ;
#99 = LENGTH_MEASURE_WITH_UNIT ( LENGTH_MEASURE( 0.02539999999999999897 ), #150 );
#100 = EDGE_CURVE ( 'NONE', #68, #156, #122, .T. ) ;
#101 = AXIS2_PLACEMENT_3D ( 'NONE', #189, #273, #77 ) ;
#102 = DIRECTION ( 'NONE',  ( 0.000000000000000000, 0.000000000000000000, 1.000000000000000000 ) ) ;
#103 = DIMENSIONAL_EXPONENTS ( 1.000000000000000000, 0.000000000000000000, 0.000000000000000000, 0.000000000000000000, 0.000000000000000000, 0.000000000000000000, 0.000000000000000000 ) ;
#104 = CC_DESIGN_DATE_AND_TIME_ASSIGNMENT ( #91, #133, ( #203 ) ) ;
#105 = CARTESIAN_POINT ( 'NONE',  ( -18.00000000000000000, 0.000000000000000000, 0.000000000000000000 ) ) ;
#106 = PERSON_AND_ORGANIZATION_ROLE ( 'creator' ) ;
#107 = APPROVAL_ROLE ( '' ) ;
#108 = AXIS2_PLACEMENT_3D ( 'NONE', #31, #167, #34 ) ;
#109 = COORDINATED_UNIVERSAL_TIME_OFFSET ( 5, 0, .BEHIND. ) ;
#110 = EDGE_CURVE ( 'NONE', #156, #180, #16, .T. ) ;
#111 = DATE_AND_TIME ( #84, #75 ) ;
#112 = APPROVAL ( #128, 'UNSPECIFIED' ) ;
#113 = LINE ( 'NONE', #187, #11 ) ;
#114 = CARTESIAN_POINT ( 'NONE',  ( -18.00000000000000000, 4.531193156845187589E-17, 0.3649999999999967715 ) ) ;
#115 = AXIS2_PLACEMENT_3D ( 'NONE', #253, #277, #102 ) ;
#116 = VERTEX_POINT ( 'NONE', #76 ) ;
#117 = FACE_OUTER_BOUND ( 'NONE', #198, .T. ) ;
#118 = AXIS2_PLACEMENT_3D ( 'NONE', #94, #70, #225 ) ;
#119 = FACE_OUTER_BOUND ( 'NONE', #204, .T. ) ;
#120 = DIRECTION ( 'NONE',  ( 1.000000000000000000, 0.000000000000000000, 0.000000000000000000 ) ) ;
#121 = CARTESIAN_POINT ( 'NONE',  ( -17.98999999999999844, 0.000000000000000000, 0.000000000000000000 ) ) ;
#122 = CIRCLE ( 'NONE', #118, 0.3649999999999967715 ) ;
#123 = ADVANCED_FACE ( 'NONE', ( #222 ), #267, .T. ) ;
#124 = APPLICATION_PROTOCOL_DEFINITION ( 'international standard', 'config_control_design', 1994, #146 ) ;
#125 =( NAMED_UNIT ( * ) SI_UNIT ( $, .STERADIAN. ) SOLID_ANGLE_UNIT ( ) );
#126 = CONICAL_SURFACE ( 'NONE', #18, 0.3650000000000011569, 0.7853981633972195731 ) ;
#127 = DATE_AND_TIME ( #233, #151 ) ;
#128 = APPROVAL_STATUS ( 'not_yet_approved' ) ;
#129 = AXIS2_PLACEMENT_3D ( 'NONE', #152, #39, #120 ) ;
#130 = PERSON_AND_ORGANIZATION ( #207, #246 ) ;
#131 = ADVANCED_FACE ( 'NONE', ( #117 ), #229, .T. ) ;
#132 = EDGE_CURVE ( 'NONE', #156, #68, #74, .T. ) ;
#133 = DATE_TIME_ROLE ( 'creation_date' ) ;
#134 = ORIENTED_EDGE ( 'NONE', *, *, #3, .T. ) ;
#135 = AXIS2_PLACEMENT_3D ( 'NONE', #83, #194, #172 ) ;
#136 = CARTESIAN_POINT ( 'NONE',  ( -17.98999999999999844, 0.000000000000000000, -0.3750000000000000555 ) ) ;
#137 = CIRCLE ( 'NONE', #45, 0.3750000000000000555 ) ;
#138 = ORIENTED_EDGE ( 'NONE', *, *, #37, .F. ) ;
#139 = DIRECTION ( 'NONE',  ( 1.000000000000000000, 0.000000000000000000, 0.000000000000000000 ) ) ;
#140 = DIRECTION ( 'NONE',  ( -1.000000000000000000, 0.000000000000000000, 0.000000000000000000 ) ) ;
#141 = ORIENTED_EDGE ( 'NONE', *, *, #212, .T. ) ;
#142 = PRODUCT_RELATED_PRODUCT_CATEGORY ( 'detail', '', ( #275 ) ) ;
#143 =( CONVERSION_BASED_UNIT ( 'INCH', #99 ) LENGTH_UNIT ( ) NAMED_UNIT ( #103 ) );
#144 = AXIS2_PLACEMENT_3D ( 'NONE', #60, #249, #248 ) ;
#145 = DIRECTION ( 'NONE',  ( 0.000000000000000000, 0.000000000000000000, -1.000000000000000000 ) ) ;
#146 = APPLICATION_CONTEXT ( 'configuration controlled 3d designs of mechanical parts and assemblies' ) ;
#147 = PLANE ( 'NONE',  #205 ) ;
#148 = APPROVAL_PERSON_ORGANIZATION ( #158, #112, #63 ) ;
#149 = ADVANCED_BREP_SHAPE_REPRESENTATION ( 'NIL12SS-036.000-SL', ( #166, #129 ), #57 ) ;
#150 =( LENGTH_UNIT ( ) NAMED_UNIT ( * ) SI_UNIT ( $, .METRE. ) );
#151 = LOCAL_TIME ( 8, 30, 56.00000000000000000, #238 ) ;
#152 = CARTESIAN_POINT ( 'NONE',  ( 0.000000000000000000, 0.000000000000000000, 0.000000000000000000 ) ) ;
#153 = EDGE_CURVE ( 'NONE', #201, #116, #20, .T. ) ;
#154 = PRODUCT_DEFINITION_SHAPE ( 'NONE', 'NONE',  #203 ) ;
#155 = SHAPE_DEFINITION_REPRESENTATION ( #154, #149 ) ;
#156 = VERTEX_POINT ( 'NONE', #173 ) ;
#157 = CC_DESIGN_PERSON_AND_ORGANIZATION_ASSIGNMENT ( #130, #64, ( #275 ) ) ;
#158 = PERSON_AND_ORGANIZATION ( #207, #246 ) ;
#159 = APPROVAL_ROLE ( '' ) ;
#160 = DATE_AND_TIME ( #65, #24 ) ;
#161 = PERSON_AND_ORGANIZATION_ROLE ( 'creator' ) ;
#162 = ORIENTED_EDGE ( 'NONE', *, *, #44, .F. ) ;
#163 = CARTESIAN_POINT ( 'NONE',  ( 17.98999999999999844, 0.000000000000000000, 0.000000000000000000 ) ) ;
#164 = ORIENTED_EDGE ( 'NONE', *, *, #132, .T. ) ;
#165 = CARTESIAN_POINT ( 'NONE',  ( 18.00000000000000000, 0.000000000000000000, 0.000000000000000000 ) ) ;
#166 = MANIFOLD_SOLID_BREP ( 'Chamfer1', #252 ) ;
#167 = DIRECTION ( 'NONE',  ( -1.000000000000000000, -0.000000000000000000, -0.000000000000000000 ) ) ;
#168 = DIRECTION ( 'NONE',  ( -1.000000000000000000, 0.000000000000000000, 0.000000000000000000 ) ) ;
#169 = DIRECTION ( 'NONE',  ( 0.000000000000000000, 0.000000000000000000, -1.000000000000000000 ) ) ;
#170 = DIRECTION ( 'NONE',  ( 1.000000000000000000, 0.000000000000000000, 0.000000000000000000 ) ) ;
#171 = ADVANCED_FACE ( 'NONE', ( #192 ), #240, .T. ) ;
#172 = DIRECTION ( 'NONE',  ( 0.000000000000000000, 0.000000000000000000, -1.000000000000000000 ) ) ;
#173 = CARTESIAN_POINT ( 'NONE',  ( -18.00000000000000000, 0.000000000000000000, -0.3649999999999967715 ) ) ;
#174 = SECURITY_CLASSIFICATION_LEVEL ( 'unclassified' ) ;
#175 = APPLICATION_PROTOCOL_DEFINITION ( 'international standard', 'config_control_design', 1994, #42 ) ;
#176 = CIRCLE ( 'NONE', #243, 0.3650000000000011569 ) ;
#177 = VECTOR ( 'NONE', #95, 39.37007874015748143 ) ;
#178 = CC_DESIGN_APPROVAL ( #79, ( #186 ) ) ;
#179 = APPROVAL_DATE_TIME ( #127, #49 ) ;
#180 = VERTEX_POINT ( 'NONE', #80 ) ;
#181 = VERTEX_POINT ( 'NONE', #61 ) ;
#182 = APPROVAL_DATE_TIME ( #111, #79 ) ;
#183 = ORIENTED_EDGE ( 'NONE', *, *, #37, .T. ) ;
#184 = DIRECTION ( 'NONE',  ( 1.000000000000000000, 0.000000000000000000, 0.000000000000000000 ) ) ;
#185 = ORIENTED_EDGE ( 'NONE', *, *, #212, .F. ) ;
#186 = PRODUCT_DEFINITION_FORMATION_WITH_SPECIFIED_SOURCE ( 'ANY', '', #275, .NOT_KNOWN. ) ;
#187 = CARTESIAN_POINT ( 'NONE',  ( 18.00000000000000000, 0.000000000000000000, 0.3750000000000000555 ) ) ;
#188 = EDGE_CURVE ( 'NONE', #89, #180, #216, .T. ) ;
#189 = CARTESIAN_POINT ( 'NONE',  ( -17.98999999999999844, 0.000000000000000000, 0.000000000000000000 ) ) ;
#190 = DESIGN_CONTEXT ( 'detailed design', #42, 'design' ) ;
#191 = ORIENTED_EDGE ( 'NONE', *, *, #33, .F. ) ;
#192 = FACE_OUTER_BOUND ( 'NONE', #221, .T. ) ;
#193 = FACE_OUTER_BOUND ( 'NONE', #92, .T. ) ;
#194 = DIRECTION ( 'NONE',  ( 1.000000000000000000, -0.000000000000000000, -0.000000000000000000 ) ) ;
#195 = FACE_OUTER_BOUND ( 'NONE', #202, .T. ) ;
#196 = APPROVAL_STATUS ( 'not_yet_approved' ) ;
#197 = APPROVAL_DATE_TIME ( #160, #112 ) ;
#198 = EDGE_LOOP ( 'NONE', ( #263, #46, #185, #265 ) ) ;
#199 = PERSON_AND_ORGANIZATION ( #207, #246 ) ;
#200 = ORIENTED_EDGE ( 'NONE', *, *, #258, .F. ) ;
#201 = VERTEX_POINT ( 'NONE', #251 ) ;
#202 = EDGE_LOOP ( 'NONE', ( #138, #22, #15, #191 ) ) ;
#203 = PRODUCT_DEFINITION ( 'UNKNOWN', '', #186, #190 ) ;
#204 = EDGE_LOOP ( 'NONE', ( #261, #183, #162, #90 ) ) ;
#205 = AXIS2_PLACEMENT_3D ( 'NONE', #105, #170, #145 ) ;
#206 = CARTESIAN_POINT ( 'NONE',  ( 17.98999999999999844, 4.592425496802575451E-17, -0.3750000000000000555 ) ) ;
#207 = PERSON ( 'UNSPECIFIED', 'UNSPECIFIED', 'UNSPECIFIED', ('UNSPECIFIED'), ('UNSPECIFIED'), ('UNSPECIFIED') ) ;
#208 = CC_DESIGN_PERSON_AND_ORGANIZATION_ASSIGNMENT ( #29, #106, ( #186 ) ) ;
#209 = DIRECTION ( 'NONE',  ( 0.000000000000000000, 0.000000000000000000, 1.000000000000000000 ) ) ;
#210 = LINE ( 'NONE', #244, #177 ) ;
#211 = CARTESIAN_POINT ( 'NONE',  ( 18.00000000000000000, 0.000000000000000000, 0.3650000000000011569 ) ) ;
#212 = EDGE_CURVE ( 'NONE', #180, #89, #17, .T. ) ;
#213 = DIRECTION ( 'NONE',  ( 0.000000000000000000, 0.000000000000000000, -1.000000000000000000 ) ) ;
#214 = CC_DESIGN_SECURITY_CLASSIFICATION ( #231, ( #186 ) ) ;
#215 = CC_DESIGN_PERSON_AND_ORGANIZATION_ASSIGNMENT ( #199, #161, ( #203 ) ) ;
#216 = CIRCLE ( 'NONE', #135, 0.3750000000000000555 ) ;
#217 = CARTESIAN_POINT ( 'NONE',  ( -17.98999999999999844, 0.000000000000000000, 0.000000000000000000 ) ) ;
#218 = ORIENTED_EDGE ( 'NONE', *, *, #3, .F. ) ;
#219 = ORIENTED_EDGE ( 'NONE', *, *, #110, .T. ) ;
#220 = MECHANICAL_CONTEXT ( 'NONE', #146, 'mechanical' ) ;
#221 = EDGE_LOOP ( 'NONE', ( #40, #27, #219, #23 ) ) ;
#222 = FACE_OUTER_BOUND ( 'NONE', #98, .T. ) ;
#223 = DIRECTION ( 'NONE',  ( 0.000000000000000000, 0.000000000000000000, -1.000000000000000000 ) ) ;
#224 = ORIENTED_EDGE ( 'NONE', *, *, #100, .T. ) ;
#225 = DIRECTION ( 'NONE',  ( 0.000000000000000000, 0.000000000000000000, -1.000000000000000000 ) ) ;
#226 = DIRECTION ( 'NONE',  ( -1.000000000000000000, 0.000000000000000000, 0.000000000000000000 ) ) ;
#227 = ADVANCED_FACE ( 'NONE', ( #195 ), #250, .T. ) ;
#228 = VECTOR ( 'NONE', #232, 39.37007874015748143 ) ;
#229 = CONICAL_SURFACE ( 'NONE', #101, 0.3750000000000000555, 0.7853981633974380649 ) ;
#230 = DIRECTION ( 'NONE',  ( 0.000000000000000000, 0.000000000000000000, 1.000000000000000000 ) ) ;
#231 = SECURITY_CLASSIFICATION ( '', '', #174 ) ;
#232 = DIRECTION ( 'NONE',  ( -1.000000000000000000, -0.000000000000000000, -0.000000000000000000 ) ) ;
#233 = CALENDAR_DATE ( 2023, 7, 6 ) ;
#234 = ADVANCED_FACE ( 'NONE', ( #193 ), #147, .F. ) ;
#235 = PERSON_AND_ORGANIZATION ( #207, #246 ) ;
#236 = COORDINATED_UNIVERSAL_TIME_OFFSET ( 5, 0, .BEHIND. ) ;
#237 = VECTOR ( 'NONE', #245, 39.37007874015748143 ) ;
#238 = COORDINATED_UNIVERSAL_TIME_OFFSET ( 5, 0, .BEHIND. ) ;
#239 = EDGE_LOOP ( 'NONE', ( #9, #7 ) ) ;
#240 = CONICAL_SURFACE ( 'NONE', #85, 0.3750000000000000555, 0.7853981633974380649 ) ;
#241 = CARTESIAN_POINT ( 'NONE',  ( 18.00000000000000000, 0.000000000000000000, 0.000000000000000000 ) ) ;
#242 = PLANE ( 'NONE',  #5 ) ;
#243 = AXIS2_PLACEMENT_3D ( 'NONE', #165, #139, #12 ) ;
#244 = CARTESIAN_POINT ( 'NONE',  ( -17.98999999999999844, 4.592425496802575451E-17, 0.3750000000000000555 ) ) ;
#245 = DIRECTION ( 'NONE',  ( -0.7071067811867093322, 8.659560562352953310E-17, -0.7071067811863858132 ) ) ;
#246 = ORGANIZATION ( 'UNSPECIFIED', 'UNSPECIFIED', '' ) ;
#247 = CARTESIAN_POINT ( 'NONE',  ( -18.00000000000000000, 0.000000000000000000, 0.000000000000000000 ) ) ;
#248 = DIRECTION ( 'NONE',  ( 0.000000000000000000, 0.000000000000000000, -1.000000000000000000 ) ) ;
#249 = DIRECTION ( 'NONE',  ( 1.000000000000000000, 0.000000000000000000, 0.000000000000000000 ) ) ;
#250 = CONICAL_SURFACE ( 'NONE', #115, 0.3650000000000011569, 0.7853981633972195731 ) ;
#251 = CARTESIAN_POINT ( 'NONE',  ( 18.00000000000000000, 0.000000000000000000, 0.3650000000000011569 ) ) ;
#252 = CLOSED_SHELL ( 'NONE', ( #131, #55, #123, #268, #25, #234, #227, #171 ) ) ;
#253 = CARTESIAN_POINT ( 'NONE',  ( 18.00000000000000000, 0.000000000000000000, 0.000000000000000000 ) ) ;
#254 = CC_DESIGN_PERSON_AND_ORGANIZATION_ASSIGNMENT ( #43, #41, ( #231 ) ) ;
#255 = LINE ( 'NONE', #78, #228 ) ;
#256 = DATE_TIME_ROLE ( 'classification_date' ) ;
#257 = DATE_AND_TIME ( #26, #270 ) ;
#258 = EDGE_CURVE ( 'NONE', #53, #180, #255, .T. ) ;
#259 = ORIENTED_EDGE ( 'NONE', *, *, #188, .T. ) ;
#260 = PERSON_AND_ORGANIZATION ( #207, #246 ) ;
#261 = ORIENTED_EDGE ( 'NONE', *, *, #82, .F. ) ;
#262 = PERSON_AND_ORGANIZATION ( #207, #246 ) ;
#263 = ORIENTED_EDGE ( 'NONE', *, *, #100, .F. ) ;
#264 = EDGE_CURVE ( 'NONE', #201, #181, #81, .T. ) ;
#265 = ORIENTED_EDGE ( 'NONE', *, *, #110, .F. ) ;
#266 = AXIS2_PLACEMENT_3D ( 'NONE', #38, #54, #230 ) ;
#267 = CYLINDRICAL_SURFACE ( 'NONE', #108, 0.3750000000000000555 ) ;
#268 = ADVANCED_FACE ( 'NONE', ( #276 ), #56, .T. ) ;
#269 = DIRECTION ( 'NONE',  ( -1.000000000000000000, -0.000000000000000000, -0.000000000000000000 ) ) ;
#270 = LOCAL_TIME ( 8, 30, 56.00000000000000000, #236 ) ;
#271 = CC_DESIGN_DATE_AND_TIME_ASSIGNMENT ( #257, #256, ( #231 ) ) ;
#272 = CARTESIAN_POINT ( 'NONE',  ( -17.98999999999999844, 0.000000000000000000, 0.3750000000000000555 ) ) ;
#273 = DIRECTION ( 'NONE',  ( 1.000000000000000000, -0.000000000000000000, -0.000000000000000000 ) ) ;
#274 = AXIS2_PLACEMENT_3D ( 'NONE', #217, #58, #169 ) ;
#275 = PRODUCT ( 'NIL12SS-036.000-SL', 'NIL12SS-036.000-SL', '', ( #220 ) ) ;
#276 = FACE_OUTER_BOUND ( 'NONE', #10, .T. ) ;
#277 = DIRECTION ( 'NONE',  ( -1.000000000000000000, 0.000000000000000000, 0.000000000000000000 ) ) ;
#278 = DIRECTION ( 'NONE',  ( -0.7071067811867093322, 0.000000000000000000, 0.7071067811863858132 ) ) ;
ENDSEC;
END-ISO-10303-21;
