ISO-10303-21;
HEADER;
FILE_DESCRIPTION (( 'STEP AP203' ),
    '1' );
FILE_NAME ('NIL12SS-024.000-SL.step',
    '2023-06-07T12:30:52',
    ( '' ),
    ( '' ),
    'SwSTEP 2.0',
    'SolidWorks 2021',
    '' );
FILE_SCHEMA (( 'CONFIG_CONTROL_DESIGN' ));
ENDSEC;

DATA;
#1 = LINE ( 'NONE', #43, #18 ) ;
#2 = ADVANCED_FACE ( 'NONE', ( #15 ), #25, .T. ) ;
#3 = LENGTH_MEASURE_WITH_UNIT ( LENGTH_MEASURE( 0.02539999999999999897 ), #171 );
#4 = EDGE_CURVE ( 'NONE', #47, #52, #80, .T. ) ;
#5 = APPROVAL ( #11, 'UNSPECIFIED' ) ;
#6 = DATE_AND_TIME ( #7, #174 ) ;
#7 = CALENDAR_DATE ( 2023, 7, 6 ) ;
#8 = ORIENTED_EDGE ( 'NONE', *, *, #36, .T. ) ;
#9 = AXIS2_PLACEMENT_3D ( 'NONE', #209, #168, #276 ) ;
#10 = ORIENTED_EDGE ( 'NONE', *, *, #152, .T. ) ;
#11 = APPROVAL_STATUS ( 'not_yet_approved' ) ;
#12 = EDGE_LOOP ( 'NONE', ( #117, #199, #166, #10 ) ) ;
#13 = CARTESIAN_POINT ( 'NONE',  ( -11.98999999999998956, 0.000000000000000000, 0.000000000000000000 ) ) ;
#14 = AXIS2_PLACEMENT_3D ( 'NONE', #76, #34, #19 ) ;
#15 = FACE_OUTER_BOUND ( 'NONE', #180, .T. ) ;
#16 = CARTESIAN_POINT ( 'NONE',  ( 12.00000000000000178, 0.000000000000000000, 0.000000000000000000 ) ) ;
#17 = APPROVAL ( #159, 'UNSPECIFIED' ) ;
#18 = VECTOR ( 'NONE', #128, 39.37007874015748143 ) ;
#19 = DIRECTION ( 'NONE',  ( 0.000000000000000000, 0.000000000000000000, -1.000000000000000000 ) ) ;
#20 = CARTESIAN_POINT ( 'NONE',  ( -12.00000000000000178, 0.000000000000000000, -0.3649999999999836153 ) ) ;
#21 = EDGE_CURVE ( 'NONE', #164, #182, #127, .T. ) ;
#22 = DIRECTION ( 'NONE',  ( -0.7071067811865523467, 0.000000000000000000, 0.7071067811865426878 ) ) ;
#23 = DIRECTION ( 'NONE',  ( 0.7071067811863978037, 8.659560562356766960E-17, 0.7071067811866972308 ) ) ;
#24 = PERSON_AND_ORGANIZATION ( #146, #255 ) ;
#25 = CONICAL_SURFACE ( 'NONE', #97, 0.3650000000000163669, 0.7853981633974415066 ) ;
#26 = APPROVAL_DATE_TIME ( #64, #5 ) ;
#27 = APPLICATION_PROTOCOL_DEFINITION ( 'international standard', 'config_control_design', 1994, #195 ) ;
#28 = ADVANCED_FACE ( 'NONE', ( #99 ), #272, .F. ) ;
#29 = VECTOR ( 'NONE', #22, 39.37007874015748143 ) ;
#30 = PERSON_AND_ORGANIZATION_ROLE ( 'creator' ) ;
#31 = LOCAL_TIME ( 8, 30, 51.00000000000000000, #46 ) ;
#32 = DIRECTION ( 'NONE',  ( -0.7071067811865523467, 8.659560562354873694E-17, -0.7071067811865426878 ) ) ;
#33 = ORIENTED_EDGE ( 'NONE', *, *, #4, .T. ) ;
#34 = DIRECTION ( 'NONE',  ( 1.000000000000000000, 0.000000000000000000, 0.000000000000000000 ) ) ;
#35 = CARTESIAN_POINT ( 'NONE',  ( 12.00000000000000178, 0.000000000000000000, 0.000000000000000000 ) ) ;
#36 = EDGE_CURVE ( 'NONE', #113, #164, #95, .T. ) ;
#37 = DIRECTION ( 'NONE',  ( 0.000000000000000000, 0.000000000000000000, -1.000000000000000000 ) ) ;
#38 = LINE ( 'NONE', #194, #92 ) ;
#39 = CARTESIAN_POINT ( 'NONE',  ( 12.00000000000000178, 0.000000000000000000, 0.3650000000000163669 ) ) ;
#40 = UNCERTAINTY_MEASURE_WITH_UNIT (LENGTH_MEASURE( 1.000000000000000082E-05 ), #82, 'distance_accuracy_value', 'NONE');
#41 = PRODUCT_DEFINITION ( 'UNKNOWN', '', #125, #256 ) ;
#42 = AXIS2_PLACEMENT_3D ( 'NONE', #277, #98, #257 ) ;
#43 = CARTESIAN_POINT ( 'NONE',  ( 12.00000000000000178, 4.592425496802573602E-17, -0.3750000000000000555 ) ) ;
#44 = LOCAL_TIME ( 8, 30, 51.00000000000000000, #115 ) ;
#45 = PERSON_AND_ORGANIZATION ( #146, #255 ) ;
#46 = COORDINATED_UNIVERSAL_TIME_OFFSET ( 5, 0, .BEHIND. ) ;
#47 = VERTEX_POINT ( 'NONE', #215 ) ;
#48 = EDGE_CURVE ( 'NONE', #93, #205, #232, .T. ) ;
#49 = PERSON_AND_ORGANIZATION ( #146, #255 ) ;
#50 = DATE_TIME_ROLE ( 'creation_date' ) ;
#51 = ORIENTED_EDGE ( 'NONE', *, *, #48, .F. ) ;
#52 = VERTEX_POINT ( 'NONE', #229 ) ;
#53 = DIRECTION ( 'NONE',  ( 0.000000000000000000, 0.000000000000000000, -1.000000000000000000 ) ) ;
#54 = DIRECTION ( 'NONE',  ( 0.7071067811863978037, 0.000000000000000000, -0.7071067811866972308 ) ) ;
#55 = LINE ( 'NONE', #228, #236 ) ;
#56 = AXIS2_PLACEMENT_3D ( 'NONE', #170, #145, #75 ) ;
#57 = CARTESIAN_POINT ( 'NONE',  ( 12.00000000000000178, 0.000000000000000000, 0.000000000000000000 ) ) ;
#58 = FACE_OUTER_BOUND ( 'NONE', #87, .T. ) ;
#59 = FACE_OUTER_BOUND ( 'NONE', #90, .T. ) ;
#60 = CARTESIAN_POINT ( 'NONE',  ( 0.000000000000000000, 0.000000000000000000, 0.000000000000000000 ) ) ;
#61 = CIRCLE ( 'NONE', #220, 0.3750000000000000555 ) ;
#62 = EDGE_CURVE ( 'NONE', #164, #113, #175, .T. ) ;
#63 = CARTESIAN_POINT ( 'NONE',  ( 12.00000000000000178, 0.000000000000000000, 0.000000000000000000 ) ) ;
#64 = DATE_AND_TIME ( #247, #132 ) ;
#65 = ORIENTED_EDGE ( 'NONE', *, *, #202, .T. ) ;
#66 = ORIENTED_EDGE ( 'NONE', *, *, #202, .F. ) ;
#67 = CC_DESIGN_APPROVAL ( #118, ( #114 ) ) ;
#68 = APPROVAL_DATE_TIME ( #265, #17 ) ;
#69 = AXIS2_PLACEMENT_3D ( 'NONE', #60, #154, #104 ) ;
#70 = ORIENTED_EDGE ( 'NONE', *, *, #130, .T. ) ;
#71 = ADVANCED_FACE ( 'NONE', ( #78 ), #84, .T. ) ;
#72 = DIRECTION ( 'NONE',  ( 0.000000000000000000, 0.000000000000000000, -1.000000000000000000 ) ) ;
#73 = DIRECTION ( 'NONE',  ( 1.000000000000000000, -0.000000000000000000, -0.000000000000000000 ) ) ;
#74 = CC_DESIGN_PERSON_AND_ORGANIZATION_ASSIGNMENT ( #24, #89, ( #125 ) ) ;
#75 = DIRECTION ( 'NONE',  ( 0.000000000000000000, 0.000000000000000000, -1.000000000000000000 ) ) ;
#76 = CARTESIAN_POINT ( 'NONE',  ( -12.00000000000000178, 0.000000000000000000, 0.000000000000000000 ) ) ;
#77 = DIMENSIONAL_EXPONENTS ( 1.000000000000000000, 0.000000000000000000, 0.000000000000000000, 0.000000000000000000, 0.000000000000000000, 0.000000000000000000, 0.000000000000000000 ) ;
#78 = FACE_OUTER_BOUND ( 'NONE', #157, .T. ) ;
#79 = DIRECTION ( 'NONE',  ( 1.000000000000000000, -0.000000000000000000, -0.000000000000000000 ) ) ;
#80 = CIRCLE ( 'NONE', #235, 0.3750000000000000555 ) ;
#81 = CARTESIAN_POINT ( 'NONE',  ( -11.98999999999998956, 0.000000000000000000, 0.3750000000000000555 ) ) ;
#82 =( CONVERSION_BASED_UNIT ( 'INCH', #3 ) LENGTH_UNIT ( ) NAMED_UNIT ( #77 ) );
#83 = CC_DESIGN_DATE_AND_TIME_ASSIGNMENT ( #203, #198, ( #114 ) ) ;
#84 = CONICAL_SURFACE ( 'NONE', #274, 0.3750000000000000555, 0.7853981633976599985 ) ;
#85 =( NAMED_UNIT ( * ) PLANE_ANGLE_UNIT ( ) SI_UNIT ( $, .RADIAN. ) );
#86 = AXIS2_PLACEMENT_3D ( 'NONE', #63, #258, #260 ) ;
#87 = EDGE_LOOP ( 'NONE', ( #225, #269 ) ) ;
#88 = APPROVAL_PERSON_ORGANIZATION ( #223, #17, #263 ) ;
#89 = PERSON_AND_ORGANIZATION_ROLE ( 'design_supplier' ) ;
#90 = EDGE_LOOP ( 'NONE', ( #33, #160, #120, #204 ) ) ;
#91 = PERSON_AND_ORGANIZATION_ROLE ( 'design_owner' ) ;
#92 = VECTOR ( 'NONE', #23, 39.37007874015748143 ) ;
#93 = VERTEX_POINT ( 'NONE', #252 ) ;
#94 = PERSON_AND_ORGANIZATION ( #146, #255 ) ;
#95 = CIRCLE ( 'NONE', #244, 0.3649999999999836153 ) ;
#96 = CARTESIAN_POINT ( 'NONE',  ( -11.98999999999998956, 0.000000000000000000, -0.3750000000000000555 ) ) ;
#97 = AXIS2_PLACEMENT_3D ( 'NONE', #250, #188, #149 ) ;
#98 = DIRECTION ( 'NONE',  ( -1.000000000000000000, -0.000000000000000000, -0.000000000000000000 ) ) ;
#99 = FACE_OUTER_BOUND ( 'NONE', #161, .T. ) ;
#100 = FACE_OUTER_BOUND ( 'NONE', #254, .T. ) ;
#101 = CONICAL_SURFACE ( 'NONE', #56, 0.3750000000000000555, 0.7853981633976599985 ) ;
#102 = ADVANCED_FACE ( 'NONE', ( #100 ), #101, .T. ) ;
#103 = DIRECTION ( 'NONE',  ( 1.000000000000000000, 0.000000000000000000, 0.000000000000000000 ) ) ;
#104 = DIRECTION ( 'NONE',  ( 1.000000000000000000, 0.000000000000000000, 0.000000000000000000 ) ) ;
#105 = CARTESIAN_POINT ( 'NONE',  ( 12.00000000000000178, 0.000000000000000000, 0.000000000000000000 ) ) ;
#106 = AXIS2_PLACEMENT_3D ( 'NONE', #35, #103, #186 ) ;
#107 = CARTESIAN_POINT ( 'NONE',  ( 12.00000000000000178, 0.000000000000000000, 0.3650000000000163669 ) ) ;
#108 = CYLINDRICAL_SURFACE ( 'NONE', #153, 0.3750000000000000555 ) ;
#109 = EDGE_CURVE ( 'NONE', #47, #266, #55, .T. ) ;
#110 = PERSON_AND_ORGANIZATION ( #146, #255 ) ;
#111 = CIRCLE ( 'NONE', #9, 0.3650000000000163669 ) ;
#112 = PERSON_AND_ORGANIZATION_ROLE ( 'creator' ) ;
#113 = VERTEX_POINT ( 'NONE', #150 ) ;
#114 = SECURITY_CLASSIFICATION ( '', '', #200 ) ;
#115 = COORDINATED_UNIVERSAL_TIME_OFFSET ( 5, 0, .BEHIND. ) ;
#116 = ORIENTED_EDGE ( 'NONE', *, *, #21, .T. ) ;
#117 = ORIENTED_EDGE ( 'NONE', *, *, #251, .F. ) ;
#118 = APPROVAL ( #183, 'UNSPECIFIED' ) ;
#119 = PERSON_AND_ORGANIZATION_ROLE ( 'classification_officer' ) ;
#120 = ORIENTED_EDGE ( 'NONE', *, *, #156, .T. ) ;
#121 = DIRECTION ( 'NONE',  ( 0.000000000000000000, 0.000000000000000000, 1.000000000000000000 ) ) ;
#122 = ORIENTED_EDGE ( 'NONE', *, *, #62, .T. ) ;
#123 = CIRCLE ( 'NONE', #211, 0.3750000000000000555 ) ;
#124 = DIRECTION ( 'NONE',  ( -1.000000000000000000, -0.000000000000000000, -0.000000000000000000 ) ) ;
#125 = PRODUCT_DEFINITION_FORMATION_WITH_SPECIFIED_SOURCE ( 'ANY', '', #165, .NOT_KNOWN. ) ;
#126 = CARTESIAN_POINT ( 'NONE',  ( 12.00000000000000178, 4.469960816888039466E-17, -0.3650000000000163669 ) ) ;
#127 = LINE ( 'NONE', #96, #222 ) ;
#128 = DIRECTION ( 'NONE',  ( -1.000000000000000000, -0.000000000000000000, -0.000000000000000000 ) ) ;
#129 = CC_DESIGN_APPROVAL ( #17, ( #125 ) ) ;
#130 = EDGE_CURVE ( 'NONE', #93, #52, #212, .T. ) ;
#131 = PLANE ( 'NONE',  #86 ) ;
#132 = LOCAL_TIME ( 8, 30, 51.00000000000000000, #181 ) ;
#133 = DATE_AND_TIME ( #185, #31 ) ;
#134 = COORDINATED_UNIVERSAL_TIME_OFFSET ( 5, 0, .BEHIND. ) ;
#135 = ADVANCED_FACE ( 'NONE', ( #214 ), #275, .T. ) ;
#136 = VECTOR ( 'NONE', #32, 39.37007874015748143 ) ;
#137 = ORIENTED_EDGE ( 'NONE', *, *, #143, .F. ) ;
#138 = PERSON_AND_ORGANIZATION ( #146, #255 ) ;
#139 = APPROVAL_ROLE ( '' ) ;
#140 = CC_DESIGN_PERSON_AND_ORGANIZATION_ASSIGNMENT ( #49, #112, ( #125 ) ) ;
#141 = CIRCLE ( 'NONE', #242, 0.3750000000000000555 ) ;
#142 = ORIENTED_EDGE ( 'NONE', *, *, #130, .F. ) ;
#143 = EDGE_CURVE ( 'NONE', #205, #93, #111, .T. ) ;
#144 = ORIENTED_EDGE ( 'NONE', *, *, #36, .F. ) ;
#145 = DIRECTION ( 'NONE',  ( 1.000000000000000000, -0.000000000000000000, -0.000000000000000000 ) ) ;
#146 = PERSON ( 'UNSPECIFIED', 'UNSPECIFIED', 'UNSPECIFIED', ('UNSPECIFIED'), ('UNSPECIFIED'), ('UNSPECIFIED') ) ;
#147 = CARTESIAN_POINT ( 'NONE',  ( -12.00000000000000178, 0.000000000000000000, 0.000000000000000000 ) ) ;
#148 = LOCAL_TIME ( 8, 30, 51.00000000000000000, #134 ) ;
#149 = DIRECTION ( 'NONE',  ( 0.000000000000000000, 0.000000000000000000, 1.000000000000000000 ) ) ;
#150 = CARTESIAN_POINT ( 'NONE',  ( -12.00000000000000178, 4.531193156845106237E-17, 0.3649999999999836153 ) ) ;
#151 = DIRECTION ( 'NONE',  ( 0.000000000000000000, 0.000000000000000000, 1.000000000000000000 ) ) ;
#152 = EDGE_CURVE ( 'NONE', #266, #182, #123, .T. ) ;
#153 = AXIS2_PLACEMENT_3D ( 'NONE', #105, #243, #151 ) ;
#154 = DIRECTION ( 'NONE',  ( 0.000000000000000000, 0.000000000000000000, 1.000000000000000000 ) ) ;
#155 = CC_DESIGN_APPROVAL ( #5, ( #41 ) ) ;
#156 = EDGE_CURVE ( 'NONE', #182, #266, #61, .T. ) ;
#157 = EDGE_LOOP ( 'NONE', ( #66, #158, #116, #268 ) ) ;
#158 = ORIENTED_EDGE ( 'NONE', *, *, #62, .F. ) ;
#159 = APPROVAL_STATUS ( 'not_yet_approved' ) ;
#160 = ORIENTED_EDGE ( 'NONE', *, *, #251, .T. ) ;
#161 = EDGE_LOOP ( 'NONE', ( #122, #8 ) ) ;
#162 = ORIENTED_EDGE ( 'NONE', *, *, #21, .F. ) ;
#163 = APPROVAL_PERSON_ORGANIZATION ( #138, #118, #139 ) ;
#164 = VERTEX_POINT ( 'NONE', #20 ) ;
#165 = PRODUCT ( 'NIL12SS-024.000-SL', 'NIL12SS-024.000-SL', '', ( #278 ) ) ;
#166 = ORIENTED_EDGE ( 'NONE', *, *, #109, .T. ) ;
#167 = MANIFOLD_SOLID_BREP ( 'Chamfer1', #234 ) ;
#168 = DIRECTION ( 'NONE',  ( 1.000000000000000000, 0.000000000000000000, 0.000000000000000000 ) ) ;
#169 = CC_DESIGN_PERSON_AND_ORGANIZATION_ASSIGNMENT ( #94, #119, ( #114 ) ) ;
#170 = CARTESIAN_POINT ( 'NONE',  ( -11.98999999999998956, 0.000000000000000000, 0.000000000000000000 ) ) ;
#171 =( LENGTH_UNIT ( ) NAMED_UNIT ( * ) SI_UNIT ( $, .METRE. ) );
#172 = DIRECTION ( 'NONE',  ( 0.000000000000000000, 0.000000000000000000, -1.000000000000000000 ) ) ;
#173 = CC_DESIGN_DATE_AND_TIME_ASSIGNMENT ( #133, #50, ( #41 ) ) ;
#174 = LOCAL_TIME ( 8, 30, 51.00000000000000000, #224 ) ;
#175 = CIRCLE ( 'NONE', #42, 0.3649999999999836153 ) ;
#176 =( NAMED_UNIT ( * ) SI_UNIT ( $, .STERADIAN. ) SOLID_ANGLE_UNIT ( ) );
#177 = PERSON_AND_ORGANIZATION ( #146, #255 ) ;
#178 = APPROVAL_DATE_TIME ( #6, #118 ) ;
#179 = APPLICATION_CONTEXT ( 'configuration controlled 3d designs of mechanical parts and assemblies' ) ;
#180 = EDGE_LOOP ( 'NONE', ( #51, #70, #207, #184 ) ) ;
#181 = COORDINATED_UNIVERSAL_TIME_OFFSET ( 5, 0, .BEHIND. ) ;
#182 = VERTEX_POINT ( 'NONE', #239 ) ;
#183 = APPROVAL_STATUS ( 'not_yet_approved' ) ;
#184 = ORIENTED_EDGE ( 'NONE', *, *, #241, .F. ) ;
#185 = CALENDAR_DATE ( 2023, 7, 6 ) ;
#186 = DIRECTION ( 'NONE',  ( 0.000000000000000000, 0.000000000000000000, -1.000000000000000000 ) ) ;
#187 = DIRECTION ( 'NONE',  ( -1.000000000000000000, 0.000000000000000000, 0.000000000000000000 ) ) ;
#188 = DIRECTION ( 'NONE',  ( -1.000000000000000000, 0.000000000000000000, 0.000000000000000000 ) ) ;
#189 = ADVANCED_FACE ( 'NONE', ( #58 ), #131, .T. ) ;
#190 = DIRECTION ( 'NONE',  ( -1.000000000000000000, 0.000000000000000000, 0.000000000000000000 ) ) ;
#191 = CARTESIAN_POINT ( 'NONE',  ( 11.99000000000001798, 0.000000000000000000, 0.000000000000000000 ) ) ;
#192 = DIRECTION ( 'NONE',  ( -1.000000000000000000, 0.000000000000000000, 0.000000000000000000 ) ) ;
#193 = ADVANCED_FACE ( 'NONE', ( #233 ), #240, .T. ) ;
#194 = CARTESIAN_POINT ( 'NONE',  ( -11.98999999999998956, 4.592425496802575451E-17, 0.3750000000000000555 ) ) ;
#195 = APPLICATION_CONTEXT ( 'configuration controlled 3d designs of mechanical parts and assemblies' ) ;
#196 = CARTESIAN_POINT ( 'NONE',  ( 11.99000000000001798, 0.000000000000000000, 0.000000000000000000 ) ) ;
#197 = PRODUCT_RELATED_PRODUCT_CATEGORY ( 'detail', '', ( #165 ) ) ;
#198 = DATE_TIME_ROLE ( 'classification_date' ) ;
#199 = ORIENTED_EDGE ( 'NONE', *, *, #227, .T. ) ;
#200 = SECURITY_CLASSIFICATION_LEVEL ( 'unclassified' ) ;
#201 = ORIENTED_EDGE ( 'NONE', *, *, #227, .F. ) ;
#202 = EDGE_CURVE ( 'NONE', #113, #266, #38, .T. ) ;
#203 = DATE_AND_TIME ( #206, #148 ) ;
#204 = ORIENTED_EDGE ( 'NONE', *, *, #109, .F. ) ;
#205 = VERTEX_POINT ( 'NONE', #107 ) ;
#206 = CALENDAR_DATE ( 2023, 7, 6 ) ;
#207 = ORIENTED_EDGE ( 'NONE', *, *, #4, .F. ) ;
#208 = ADVANCED_FACE ( 'NONE', ( #59 ), #108, .T. ) ;
#209 = CARTESIAN_POINT ( 'NONE',  ( 12.00000000000000178, 0.000000000000000000, 0.000000000000000000 ) ) ;
#210 = ORIENTED_EDGE ( 'NONE', *, *, #241, .T. ) ;
#211 = AXIS2_PLACEMENT_3D ( 'NONE', #13, #271, #72 ) ;
#212 = LINE ( 'NONE', #126, #136 ) ;
#213 = ADVANCED_BREP_SHAPE_REPRESENTATION ( 'NIL12SS-024.000-SL', ( #167, #69 ), #270 ) ;
#214 = FACE_OUTER_BOUND ( 'NONE', #248, .T. ) ;
#215 = CARTESIAN_POINT ( 'NONE',  ( 11.99000000000001798, 0.000000000000000000, 0.3750000000000000555 ) ) ;
#216 = APPLICATION_PROTOCOL_DEFINITION ( 'international standard', 'config_control_design', 1994, #179 ) ;
#217 = APPROVAL_PERSON_ORGANIZATION ( #177, #5, #245 ) ;
#218 = CC_DESIGN_PERSON_AND_ORGANIZATION_ASSIGNMENT ( #45, #91, ( #165 ) ) ;
#219 = CARTESIAN_POINT ( 'NONE',  ( -11.98999999999998956, 0.000000000000000000, 0.000000000000000000 ) ) ;
#220 = AXIS2_PLACEMENT_3D ( 'NONE', #219, #79, #172 ) ;
#221 = DIRECTION ( 'NONE',  ( 0.000000000000000000, 0.000000000000000000, -1.000000000000000000 ) ) ;
#222 = VECTOR ( 'NONE', #54, 39.37007874015748143 ) ;
#223 = PERSON_AND_ORGANIZATION ( #146, #255 ) ;
#224 = COORDINATED_UNIVERSAL_TIME_OFFSET ( 5, 0, .BEHIND. ) ;
#225 = ORIENTED_EDGE ( 'NONE', *, *, #143, .T. ) ;
#226 = CARTESIAN_POINT ( 'NONE',  ( -11.98999999999998956, 0.000000000000000000, 0.000000000000000000 ) ) ;
#227 = EDGE_CURVE ( 'NONE', #52, #47, #141, .T. ) ;
#228 = CARTESIAN_POINT ( 'NONE',  ( 12.00000000000000178, 0.000000000000000000, 0.3750000000000000555 ) ) ;
#229 = CARTESIAN_POINT ( 'NONE',  ( 11.99000000000001798, 4.592425496802573602E-17, -0.3750000000000000555 ) ) ;
#230 = CC_DESIGN_SECURITY_CLASSIFICATION ( #114, ( #125 ) ) ;
#231 = DIRECTION ( 'NONE',  ( -1.000000000000000000, -0.000000000000000000, -0.000000000000000000 ) ) ;
#232 = CIRCLE ( 'NONE', #106, 0.3650000000000163669 ) ;
#233 = FACE_OUTER_BOUND ( 'NONE', #12, .T. ) ;
#234 = CLOSED_SHELL ( 'NONE', ( #102, #2, #208, #193, #189, #28, #135, #71 ) ) ;
#235 = AXIS2_PLACEMENT_3D ( 'NONE', #191, #187, #37 ) ;
#236 = VECTOR ( 'NONE', #124, 39.37007874015748143 ) ;
#237 = PRODUCT_DEFINITION_SHAPE ( 'NONE', 'NONE',  #41 ) ;
#238 = DIRECTION ( 'NONE',  ( -1.000000000000000000, -0.000000000000000000, -0.000000000000000000 ) ) ;
#239 = CARTESIAN_POINT ( 'NONE',  ( -11.98999999999998956, 4.592425496802573602E-17, -0.3750000000000000555 ) ) ;
#240 = CYLINDRICAL_SURFACE ( 'NONE', #253, 0.3750000000000000555 ) ;
#241 = EDGE_CURVE ( 'NONE', #205, #47, #261, .T. ) ;
#242 = AXIS2_PLACEMENT_3D ( 'NONE', #196, #192, #221 ) ;
#243 = DIRECTION ( 'NONE',  ( -1.000000000000000000, -0.000000000000000000, -0.000000000000000000 ) ) ;
#244 = AXIS2_PLACEMENT_3D ( 'NONE', #147, #231, #273 ) ;
#245 = APPROVAL_ROLE ( '' ) ;
#246 = CALENDAR_DATE ( 2023, 7, 6 ) ;
#247 = CALENDAR_DATE ( 2023, 7, 6 ) ;
#248 = EDGE_LOOP ( 'NONE', ( #142, #137, #210, #201 ) ) ;
#249 = ORIENTED_EDGE ( 'NONE', *, *, #156, .F. ) ;
#250 = CARTESIAN_POINT ( 'NONE',  ( 12.00000000000000178, 0.000000000000000000, 0.000000000000000000 ) ) ;
#251 = EDGE_CURVE ( 'NONE', #52, #182, #1, .T. ) ;
#252 = CARTESIAN_POINT ( 'NONE',  ( 12.00000000000000178, 4.531193156845307150E-17, -0.3650000000000163669 ) ) ;
#253 = AXIS2_PLACEMENT_3D ( 'NONE', #57, #238, #262 ) ;
#254 = EDGE_LOOP ( 'NONE', ( #144, #65, #249, #162 ) ) ;
#255 = ORGANIZATION ( 'UNSPECIFIED', 'UNSPECIFIED', '' ) ;
#256 = DESIGN_CONTEXT ( 'detailed design', #195, 'design' ) ;
#257 = DIRECTION ( 'NONE',  ( 0.000000000000000000, 0.000000000000000000, -1.000000000000000000 ) ) ;
#258 = DIRECTION ( 'NONE',  ( 1.000000000000000000, 0.000000000000000000, 0.000000000000000000 ) ) ;
#259 = AXIS2_PLACEMENT_3D ( 'NONE', #16, #190, #121 ) ;
#260 = DIRECTION ( 'NONE',  ( 0.000000000000000000, 0.000000000000000000, -1.000000000000000000 ) ) ;
#261 = LINE ( 'NONE', #39, #29 ) ;
#262 = DIRECTION ( 'NONE',  ( 0.000000000000000000, 0.000000000000000000, 1.000000000000000000 ) ) ;
#263 = APPROVAL_ROLE ( '' ) ;
#264 = CC_DESIGN_PERSON_AND_ORGANIZATION_ASSIGNMENT ( #110, #30, ( #41 ) ) ;
#265 = DATE_AND_TIME ( #246, #44 ) ;
#266 = VERTEX_POINT ( 'NONE', #81 ) ;
#267 = SHAPE_DEFINITION_REPRESENTATION ( #237, #213 ) ;
#268 = ORIENTED_EDGE ( 'NONE', *, *, #152, .F. ) ;
#269 = ORIENTED_EDGE ( 'NONE', *, *, #48, .T. ) ;
#270 =( GEOMETRIC_REPRESENTATION_CONTEXT ( 3 ) GLOBAL_UNCERTAINTY_ASSIGNED_CONTEXT ( ( #40 ) ) GLOBAL_UNIT_ASSIGNED_CONTEXT ( ( #82, #85, #176 ) ) REPRESENTATION_CONTEXT ( 'NONE', 'WORKASPACE' ) );
#271 = DIRECTION ( 'NONE',  ( 1.000000000000000000, -0.000000000000000000, -0.000000000000000000 ) ) ;
#272 = PLANE ( 'NONE',  #14 ) ;
#273 = DIRECTION ( 'NONE',  ( 0.000000000000000000, 0.000000000000000000, -1.000000000000000000 ) ) ;
#274 = AXIS2_PLACEMENT_3D ( 'NONE', #226, #73, #53 ) ;
#275 = CONICAL_SURFACE ( 'NONE', #259, 0.3650000000000163669, 0.7853981633974415066 ) ;
#276 = DIRECTION ( 'NONE',  ( 0.000000000000000000, 0.000000000000000000, -1.000000000000000000 ) ) ;
#277 = CARTESIAN_POINT ( 'NONE',  ( -12.00000000000000178, 0.000000000000000000, 0.000000000000000000 ) ) ;
#278 = MECHANICAL_CONTEXT ( 'NONE', #179, 'mechanical' ) ;
ENDSEC;
END-ISO-10303-21;
