ISO-10303-21;
HEADER;
FILE_DESCRIPTION (( 'STEP AP203' ),
    '1' );
FILE_NAME ('NIL12SS-012.000-SL.step',
    '2023-06-07T12:30:47',
    ( '' ),
    ( '' ),
    'SwSTEP 2.0',
    'SolidWorks 2021',
    '' );
FILE_SCHEMA (( 'CONFIG_CONTROL_DESIGN' ));
ENDSEC;

DATA;
#1 = CALENDAR_DATE ( 2023, 7, 6 ) ;
#2 = AXIS2_PLACEMENT_3D ( 'NONE', #36, #143, #232 ) ;
#3 = VERTEX_POINT ( 'NONE', #11 ) ;
#4 = COORDINATED_UNIVERSAL_TIME_OFFSET ( 5, 0, .BEHIND. ) ;
#5 = VERTEX_POINT ( 'NONE', #56 ) ;
#6 = PERSON ( 'UNSPECIFIED', 'UNSPECIFIED', 'UNSPECIFIED', ('UNSPECIFIED'), ('UNSPECIFIED'), ('UNSPECIFIED') ) ;
#7 = CC_DESIGN_DATE_AND_TIME_ASSIGNMENT ( #24, #138, ( #122 ) ) ;
#8 = DIRECTION ( 'NONE',  ( -1.000000000000000000, 0.000000000000000000, 0.000000000000000000 ) ) ;
#9 = CARTESIAN_POINT ( 'NONE',  ( -6.000000000000000888, 0.000000000000000000, 0.000000000000000000 ) ) ;
#10 = CC_DESIGN_APPROVAL ( #119, ( #161 ) ) ;
#11 = CARTESIAN_POINT ( 'NONE',  ( 5.990000000000004654, 4.592425496802573602E-17, -0.3750000000000000555 ) ) ;
#12 = DIRECTION ( 'NONE',  ( -1.000000000000000000, -0.000000000000000000, -0.000000000000000000 ) ) ;
#13 =( LENGTH_UNIT ( ) NAMED_UNIT ( * ) SI_UNIT ( $, .METRE. ) );
#14 = DIRECTION ( 'NONE',  ( 0.000000000000000000, 0.000000000000000000, -1.000000000000000000 ) ) ;
#15 = CIRCLE ( 'NONE', #191, 0.3750000000000000555 ) ;
#16 = APPLICATION_PROTOCOL_DEFINITION ( 'international standard', 'config_control_design', 1994, #149 ) ;
#17 = PRODUCT_RELATED_PRODUCT_CATEGORY ( 'detail', '', ( #210 ) ) ;
#18 = DIRECTION ( 'NONE',  ( 0.000000000000000000, 0.000000000000000000, 1.000000000000000000 ) ) ;
#19 =( NAMED_UNIT ( * ) SI_UNIT ( $, .STERADIAN. ) SOLID_ANGLE_UNIT ( ) );
#20 = VECTOR ( 'NONE', #168, 39.37007874015748143 ) ;
#21 = EDGE_CURVE ( 'NONE', #31, #69, #15, .T. ) ;
#22 = APPROVAL_STATUS ( 'not_yet_approved' ) ;
#23 = ORIENTED_EDGE ( 'NONE', *, *, #215, .T. ) ;
#24 = DATE_AND_TIME ( #156, #99 ) ;
#25 = CIRCLE ( 'NONE', #227, 0.3649999999999880007 ) ;
#26 = ORIENTED_EDGE ( 'NONE', *, *, #245, .T. ) ;
#27 = AXIS2_PLACEMENT_3D ( 'NONE', #189, #222, #89 ) ;
#28 = PERSON_AND_ORGANIZATION ( #6, #114 ) ;
#29 = ORIENTED_EDGE ( 'NONE', *, *, #38, .T. ) ;
#30 = APPROVAL_DATE_TIME ( #264, #237 ) ;
#31 = VERTEX_POINT ( 'NONE', #160 ) ;
#32 = ORIENTED_EDGE ( 'NONE', *, *, #45, .F. ) ;
#33 = CARTESIAN_POINT ( 'NONE',  ( 6.000000000000000888, 0.000000000000000000, 0.000000000000000000 ) ) ;
#34 = LOCAL_TIME ( 8, 30, 47.00000000000000000, #49 ) ;
#35 = DIRECTION ( 'NONE',  ( 0.000000000000000000, 0.000000000000000000, -1.000000000000000000 ) ) ;
#36 = CARTESIAN_POINT ( 'NONE',  ( 6.000000000000000888, 0.000000000000000000, 0.000000000000000000 ) ) ;
#37 = CARTESIAN_POINT ( 'NONE',  ( 6.000000000000000888, 0.000000000000000000, 0.000000000000000000 ) ) ;
#38 = EDGE_CURVE ( 'NONE', #272, #260, #106, .T. ) ;
#39 = DIRECTION ( 'NONE',  ( 0.000000000000000000, 0.000000000000000000, -1.000000000000000000 ) ) ;
#40 = CARTESIAN_POINT ( 'NONE',  ( -5.989999999999986002, 0.000000000000000000, -0.3750000000000000555 ) ) ;
#41 =( NAMED_UNIT ( * ) PLANE_ANGLE_UNIT ( ) SI_UNIT ( $, .RADIAN. ) );
#42 = CARTESIAN_POINT ( 'NONE',  ( 6.000000000000000888, 0.000000000000000000, 0.000000000000000000 ) ) ;
#43 = ORIENTED_EDGE ( 'NONE', *, *, #111, .T. ) ;
#44 = APPROVAL_ROLE ( '' ) ;
#45 = EDGE_CURVE ( 'NONE', #5, #188, #125, .T. ) ;
#46 = CC_DESIGN_DATE_AND_TIME_ASSIGNMENT ( #154, #67, ( #161 ) ) ;
#47 = PERSON_AND_ORGANIZATION_ROLE ( 'classification_officer' ) ;
#48 = ORIENTED_EDGE ( 'NONE', *, *, #190, .T. ) ;
#49 = COORDINATED_UNIVERSAL_TIME_OFFSET ( 5, 0, .BEHIND. ) ;
#50 = APPROVAL ( #183, 'UNSPECIFIED' ) ;
#51 = CARTESIAN_POINT ( 'NONE',  ( 6.000000000000000888, 4.592425496802573602E-17, -0.3750000000000000555 ) ) ;
#52 = VECTOR ( 'NONE', #145, 39.37007874015748143 ) ;
#53 = DIRECTION ( 'NONE',  ( 0.000000000000000000, 0.000000000000000000, 1.000000000000000000 ) ) ;
#54 = FACE_OUTER_BOUND ( 'NONE', #117, .T. ) ;
#55 = CARTESIAN_POINT ( 'NONE',  ( 6.000000000000000888, 0.000000000000000000, 0.3650000000000043765 ) ) ;
#56 = CARTESIAN_POINT ( 'NONE',  ( 6.000000000000000888, 4.531193156845233811E-17, -0.3650000000000043765 ) ) ;
#57 = DIRECTION ( 'NONE',  ( -0.7071067811865523467, 8.659560562354873694E-17, -0.7071067811865426878 ) ) ;
#58 = CC_DESIGN_PERSON_AND_ORGANIZATION_ASSIGNMENT ( #65, #47, ( #161 ) ) ;
#59 = PLANE ( 'NONE',  #269 ) ;
#60 = LENGTH_MEASURE_WITH_UNIT ( LENGTH_MEASURE( 0.02539999999999999897 ), #13 );
#61 = ADVANCED_FACE ( 'NONE', ( #72 ), #88, .T. ) ;
#62 = CIRCLE ( 'NONE', #74, 0.3750000000000000555 ) ;
#63 = CALENDAR_DATE ( 2023, 7, 6 ) ;
#64 = CLOSED_SHELL ( 'NONE', ( #104, #157, #167, #71, #200, #141, #61, #267 ) ) ;
#65 = PERSON_AND_ORGANIZATION ( #6, #114 ) ;
#66 = PERSON_AND_ORGANIZATION_ROLE ( 'creator' ) ;
#67 = DATE_TIME_ROLE ( 'classification_date' ) ;
#68 = AXIS2_PLACEMENT_3D ( 'NONE', #211, #133, #196 ) ;
#69 = VERTEX_POINT ( 'NONE', #248 ) ;
#70 = ORIENTED_EDGE ( 'NONE', *, *, #258, .T. ) ;
#71 = ADVANCED_FACE ( 'NONE', ( #54 ), #186, .T. ) ;
#72 = FACE_OUTER_BOUND ( 'NONE', #241, .T. ) ;
#73 = EDGE_LOOP ( 'NONE', ( #213, #225, #223, #140 ) ) ;
#74 = AXIS2_PLACEMENT_3D ( 'NONE', #128, #230, #35 ) ;
#75 = EDGE_CURVE ( 'NONE', #188, #5, #131, .T. ) ;
#76 = LINE ( 'NONE', #55, #52 ) ;
#77 = DIRECTION ( 'NONE',  ( 0.000000000000000000, 0.000000000000000000, -1.000000000000000000 ) ) ;
#78 = EDGE_CURVE ( 'NONE', #69, #31, #62, .T. ) ;
#79 = LINE ( 'NONE', #80, #20 ) ;
#80 = CARTESIAN_POINT ( 'NONE',  ( 6.000000000000000888, 0.000000000000000000, 0.3750000000000000555 ) ) ;
#81 = CARTESIAN_POINT ( 'NONE',  ( 6.000000000000000888, 0.000000000000000000, 0.000000000000000000 ) ) ;
#82 = AXIS2_PLACEMENT_3D ( 'NONE', #81, #238, #18 ) ;
#83 = FACE_OUTER_BOUND ( 'NONE', #198, .T. ) ;
#84 = AXIS2_PLACEMENT_3D ( 'NONE', #151, #254, #85 ) ;
#85 = DIRECTION ( 'NONE',  ( 0.000000000000000000, 0.000000000000000000, -1.000000000000000000 ) ) ;
#86 = EDGE_CURVE ( 'NONE', #260, #272, #25, .T. ) ;
#87 = LOCAL_TIME ( 8, 30, 47.00000000000000000, #137 ) ;
#88 = CONICAL_SURFACE ( 'NONE', #101, 0.3650000000000043765, 0.7853981633974415066 ) ;
#89 = DIRECTION ( 'NONE',  ( 1.000000000000000000, 0.000000000000000000, 0.000000000000000000 ) ) ;
#90 = ORIENTED_EDGE ( 'NONE', *, *, #45, .T. ) ;
#91 = SHAPE_DEFINITION_REPRESENTATION ( #144, #233 ) ;
#92 = ORIENTED_EDGE ( 'NONE', *, *, #215, .F. ) ;
#93 = APPLICATION_PROTOCOL_DEFINITION ( 'international standard', 'config_control_design', 1994, #255 ) ;
#94 = ORIENTED_EDGE ( 'NONE', *, *, #108, .T. ) ;
#95 = ORIENTED_EDGE ( 'NONE', *, *, #75, .T. ) ;
#96 = CC_DESIGN_PERSON_AND_ORGANIZATION_ASSIGNMENT ( #261, #246, ( #122 ) ) ;
#97 = FACE_OUTER_BOUND ( 'NONE', #73, .T. ) ;
#98 = DIRECTION ( 'NONE',  ( 0.000000000000000000, 0.000000000000000000, -1.000000000000000000 ) ) ;
#99 = LOCAL_TIME ( 8, 30, 47.00000000000000000, #4 ) ;
#100 = DIRECTION ( 'NONE',  ( 1.000000000000000000, -0.000000000000000000, -0.000000000000000000 ) ) ;
#101 = AXIS2_PLACEMENT_3D ( 'NONE', #209, #8, #164 ) ;
#102 = DIRECTION ( 'NONE',  ( 1.000000000000000000, -0.000000000000000000, -0.000000000000000000 ) ) ;
#103 = CARTESIAN_POINT ( 'NONE',  ( 5.990000000000004654, 0.000000000000000000, 0.000000000000000000 ) ) ;
#104 = ADVANCED_FACE ( 'NONE', ( #97 ), #174, .T. ) ;
#105 = VECTOR ( 'NONE', #277, 39.37007874015748143 ) ;
#106 = CIRCLE ( 'NONE', #218, 0.3649999999999880007 ) ;
#107 = FACE_OUTER_BOUND ( 'NONE', #212, .T. ) ;
#108 = EDGE_CURVE ( 'NONE', #188, #206, #76, .T. ) ;
#109 = DIRECTION ( 'NONE',  ( 0.000000000000000000, 0.000000000000000000, 1.000000000000000000 ) ) ;
#110 = APPROVAL_DATE_TIME ( #203, #50 ) ;
#111 = EDGE_CURVE ( 'NONE', #3, #69, #251, .T. ) ;
#112 = PERSON_AND_ORGANIZATION ( #6, #114 ) ;
#113 = ORIENTED_EDGE ( 'NONE', *, *, #75, .F. ) ;
#114 = ORGANIZATION ( 'UNSPECIFIED', 'UNSPECIFIED', '' ) ;
#115 = PERSON_AND_ORGANIZATION ( #6, #114 ) ;
#116 = APPROVAL_STATUS ( 'not_yet_approved' ) ;
#117 = EDGE_LOOP ( 'NONE', ( #176, #124, #48, #262 ) ) ;
#118 = ORIENTED_EDGE ( 'NONE', *, *, #108, .F. ) ;
#119 = APPROVAL ( #22, 'UNSPECIFIED' ) ;
#120 = MANIFOLD_SOLID_BREP ( 'Chamfer1', #64 ) ;
#121 = CARTESIAN_POINT ( 'NONE',  ( -5.989999999999986002, 0.000000000000000000, 0.000000000000000000 ) ) ;
#122 = PRODUCT_DEFINITION ( 'UNKNOWN', '', #207, #199 ) ;
#123 = PLANE ( 'NONE',  #68 ) ;
#124 = ORIENTED_EDGE ( 'NONE', *, *, #129, .T. ) ;
#125 = CIRCLE ( 'NONE', #259, 0.3650000000000043765 ) ;
#126 = AXIS2_PLACEMENT_3D ( 'NONE', #37, #166, #109 ) ;
#127 = DIRECTION ( 'NONE',  ( 0.000000000000000000, 0.000000000000000000, -1.000000000000000000 ) ) ;
#128 = CARTESIAN_POINT ( 'NONE',  ( -5.989999999999986002, 0.000000000000000000, 0.000000000000000000 ) ) ;
#129 = EDGE_CURVE ( 'NONE', #3, #206, #257, .T. ) ;
#130 = CC_DESIGN_APPROVAL ( #237, ( #207 ) ) ;
#131 = CIRCLE ( 'NONE', #2, 0.3650000000000043765 ) ;
#132 = AXIS2_PLACEMENT_3D ( 'NONE', #171, #148, #39 ) ;
#133 = DIRECTION ( 'NONE',  ( 1.000000000000000000, 0.000000000000000000, 0.000000000000000000 ) ) ;
#134 = MECHANICAL_CONTEXT ( 'NONE', #149, 'mechanical' ) ;
#135 = ORIENTED_EDGE ( 'NONE', *, *, #21, .F. ) ;
#136 = APPROVAL_PERSON_ORGANIZATION ( #115, #119, #240 ) ;
#137 = COORDINATED_UNIVERSAL_TIME_OFFSET ( 5, 0, .BEHIND. ) ;
#138 = DATE_TIME_ROLE ( 'creation_date' ) ;
#139 = EDGE_LOOP ( 'NONE', ( #265, #29 ) ) ;
#140 = ORIENTED_EDGE ( 'NONE', *, *, #258, .F. ) ;
#141 = ADVANCED_FACE ( 'NONE', ( #142 ), #123, .F. ) ;
#142 = FACE_OUTER_BOUND ( 'NONE', #139, .T. ) ;
#143 = DIRECTION ( 'NONE',  ( 1.000000000000000000, 0.000000000000000000, 0.000000000000000000 ) ) ;
#144 = PRODUCT_DEFINITION_SHAPE ( 'NONE', 'NONE',  #122 ) ;
#145 = DIRECTION ( 'NONE',  ( -0.7071067811865523467, 0.000000000000000000, 0.7071067811865426878 ) ) ;
#146 = CC_DESIGN_PERSON_AND_ORGANIZATION_ASSIGNMENT ( #158, #201, ( #210 ) ) ;
#147 = CARTESIAN_POINT ( 'NONE',  ( 6.000000000000000888, 0.000000000000000000, 0.000000000000000000 ) ) ;
#148 = DIRECTION ( 'NONE',  ( 1.000000000000000000, -0.000000000000000000, -0.000000000000000000 ) ) ;
#149 = APPLICATION_CONTEXT ( 'configuration controlled 3d designs of mechanical parts and assemblies' ) ;
#150 = DIRECTION ( 'NONE',  ( 0.7071067811866296182, 8.659560562353927061E-17, 0.7071067811864654162 ) ) ;
#151 = CARTESIAN_POINT ( 'NONE',  ( 5.990000000000004654, 0.000000000000000000, 0.000000000000000000 ) ) ;
#152 = APPROVAL_PERSON_ORGANIZATION ( #178, #50, #226 ) ;
#153 = CYLINDRICAL_SURFACE ( 'NONE', #126, 0.3750000000000000555 ) ;
#154 = DATE_AND_TIME ( #63, #263 ) ;
#155 = CALENDAR_DATE ( 2023, 7, 6 ) ;
#156 = CALENDAR_DATE ( 2023, 7, 6 ) ;
#157 = ADVANCED_FACE ( 'NONE', ( #214 ), #234, .T. ) ;
#158 = PERSON_AND_ORGANIZATION ( #6, #114 ) ;
#159 = ORIENTED_EDGE ( 'NONE', *, *, #190, .F. ) ;
#160 = CARTESIAN_POINT ( 'NONE',  ( -5.989999999999986002, 0.000000000000000000, 0.3750000000000000555 ) ) ;
#161 = SECURITY_CLASSIFICATION ( '', '', #175 ) ;
#162 = CONICAL_SURFACE ( 'NONE', #132, 0.3750000000000000555, 0.7853981633973321497 ) ;
#163 = CARTESIAN_POINT ( 'NONE',  ( -5.989999999999986002, 0.000000000000000000, 0.000000000000000000 ) ) ;
#164 = DIRECTION ( 'NONE',  ( 0.000000000000000000, 0.000000000000000000, 1.000000000000000000 ) ) ;
#165 = UNCERTAINTY_MEASURE_WITH_UNIT (LENGTH_MEASURE( 1.000000000000000082E-05 ), #256, 'distance_accuracy_value', 'NONE');
#166 = DIRECTION ( 'NONE',  ( -1.000000000000000000, -0.000000000000000000, -0.000000000000000000 ) ) ;
#167 = ADVANCED_FACE ( 'NONE', ( #107 ), #153, .T. ) ;
#168 = DIRECTION ( 'NONE',  ( -1.000000000000000000, -0.000000000000000000, -0.000000000000000000 ) ) ;
#169 = CARTESIAN_POINT ( 'NONE',  ( 5.990000000000004654, 0.000000000000000000, 0.3750000000000000555 ) ) ;
#170 = CIRCLE ( 'NONE', #84, 0.3750000000000000555 ) ;
#171 = CARTESIAN_POINT ( 'NONE',  ( -5.989999999999986002, 0.000000000000000000, 0.000000000000000000 ) ) ;
#172 = EDGE_CURVE ( 'NONE', #272, #31, #192, .T. ) ;
#173 = APPROVAL_PERSON_ORGANIZATION ( #244, #237, #44 ) ;
#174 = CONICAL_SURFACE ( 'NONE', #182, 0.3750000000000000555, 0.7853981633973321497 ) ;
#175 = SECURITY_CLASSIFICATION_LEVEL ( 'unclassified' ) ;
#176 = ORIENTED_EDGE ( 'NONE', *, *, #111, .F. ) ;
#177 = DIMENSIONAL_EXPONENTS ( 1.000000000000000000, 0.000000000000000000, 0.000000000000000000, 0.000000000000000000, 0.000000000000000000, 0.000000000000000000, 0.000000000000000000 ) ;
#178 = PERSON_AND_ORGANIZATION ( #6, #114 ) ;
#179 = ORIENTED_EDGE ( 'NONE', *, *, #245, .F. ) ;
#180 = CALENDAR_DATE ( 2023, 7, 6 ) ;
#181 = LOCAL_TIME ( 8, 30, 47.00000000000000000, #217 ) ;
#182 = AXIS2_PLACEMENT_3D ( 'NONE', #163, #102, #268 ) ;
#183 = APPROVAL_STATUS ( 'not_yet_approved' ) ;
#184 = EDGE_LOOP ( 'NONE', ( #32, #26, #92, #118 ) ) ;
#185 = DIRECTION ( 'NONE',  ( -1.000000000000000000, 0.000000000000000000, 0.000000000000000000 ) ) ;
#186 = CYLINDRICAL_SURFACE ( 'NONE', #249, 0.3750000000000000555 ) ;
#187 = DIRECTION ( 'NONE',  ( -1.000000000000000000, -0.000000000000000000, -0.000000000000000000 ) ) ;
#188 = VERTEX_POINT ( 'NONE', #235 ) ;
#189 = CARTESIAN_POINT ( 'NONE',  ( 0.000000000000000000, 0.000000000000000000, 0.000000000000000000 ) ) ;
#190 = EDGE_CURVE ( 'NONE', #206, #31, #79, .T. ) ;
#191 = AXIS2_PLACEMENT_3D ( 'NONE', #121, #100, #98 ) ;
#192 = LINE ( 'NONE', #274, #250 ) ;
#193 = DIRECTION ( 'NONE',  ( 1.000000000000000000, 0.000000000000000000, 0.000000000000000000 ) ) ;
#194 = LINE ( 'NONE', #40, #105 ) ;
#195 = AXIS2_PLACEMENT_3D ( 'NONE', #103, #185, #266 ) ;
#196 = DIRECTION ( 'NONE',  ( 0.000000000000000000, 0.000000000000000000, -1.000000000000000000 ) ) ;
#197 = COORDINATED_UNIVERSAL_TIME_OFFSET ( 5, 0, .BEHIND. ) ;
#198 = EDGE_LOOP ( 'NONE', ( #208, #204, #70, #135 ) ) ;
#199 = DESIGN_CONTEXT ( 'detailed design', #255, 'design' ) ;
#200 = ADVANCED_FACE ( 'NONE', ( #236 ), #59, .T. ) ;
#201 = PERSON_AND_ORGANIZATION_ROLE ( 'design_owner' ) ;
#202 = ORIENTED_EDGE ( 'NONE', *, *, #78, .T. ) ;
#203 = DATE_AND_TIME ( #1, #34 ) ;
#204 = ORIENTED_EDGE ( 'NONE', *, *, #86, .F. ) ;
#205 = DATE_AND_TIME ( #180, #181 ) ;
#206 = VERTEX_POINT ( 'NONE', #169 ) ;
#207 = PRODUCT_DEFINITION_FORMATION_WITH_SPECIFIED_SOURCE ( 'ANY', '', #210, .NOT_KNOWN. ) ;
#208 = ORIENTED_EDGE ( 'NONE', *, *, #172, .F. ) ;
#209 = CARTESIAN_POINT ( 'NONE',  ( 6.000000000000000888, 0.000000000000000000, 0.000000000000000000 ) ) ;
#210 = PRODUCT ( 'NIL12SS-012.000-SL', 'NIL12SS-012.000-SL', '', ( #134 ) ) ;
#211 = CARTESIAN_POINT ( 'NONE',  ( -6.000000000000000888, 0.000000000000000000, 0.000000000000000000 ) ) ;
#212 = EDGE_LOOP ( 'NONE', ( #23, #43, #202, #159 ) ) ;
#213 = ORIENTED_EDGE ( 'NONE', *, *, #38, .F. ) ;
#214 = FACE_OUTER_BOUND ( 'NONE', #184, .T. ) ;
#215 = EDGE_CURVE ( 'NONE', #206, #3, #170, .T. ) ;
#216 = CARTESIAN_POINT ( 'NONE',  ( -6.000000000000000888, 0.000000000000000000, -0.3649999999999880007 ) ) ;
#217 = COORDINATED_UNIVERSAL_TIME_OFFSET ( 5, 0, .BEHIND. ) ;
#218 = AXIS2_PLACEMENT_3D ( 'NONE', #9, #187, #77 ) ;
#219 = CC_DESIGN_PERSON_AND_ORGANIZATION_ASSIGNMENT ( #28, #242, ( #207 ) ) ;
#220 = APPROVAL_DATE_TIME ( #205, #119 ) ;
#221 = ORIENTED_EDGE ( 'NONE', *, *, #129, .F. ) ;
#222 = DIRECTION ( 'NONE',  ( 0.000000000000000000, 0.000000000000000000, 1.000000000000000000 ) ) ;
#223 = ORIENTED_EDGE ( 'NONE', *, *, #78, .F. ) ;
#224 = VECTOR ( 'NONE', #12, 39.37007874015748143 ) ;
#225 = ORIENTED_EDGE ( 'NONE', *, *, #172, .T. ) ;
#226 = APPROVAL_ROLE ( '' ) ;
#227 = AXIS2_PLACEMENT_3D ( 'NONE', #252, #253, #127 ) ;
#228 = DIRECTION ( 'NONE',  ( 1.000000000000000000, 0.000000000000000000, 0.000000000000000000 ) ) ;
#229 = DIRECTION ( 'NONE',  ( -1.000000000000000000, -0.000000000000000000, -0.000000000000000000 ) ) ;
#230 = DIRECTION ( 'NONE',  ( 1.000000000000000000, -0.000000000000000000, -0.000000000000000000 ) ) ;
#231 = CC_DESIGN_APPROVAL ( #50, ( #122 ) ) ;
#232 = DIRECTION ( 'NONE',  ( 0.000000000000000000, 0.000000000000000000, -1.000000000000000000 ) ) ;
#233 = ADVANCED_BREP_SHAPE_REPRESENTATION ( 'NIL12SS-012.000-SL', ( #120, #27 ), #271 ) ;
#234 = CONICAL_SURFACE ( 'NONE', #82, 0.3650000000000043765, 0.7853981633974415066 ) ;
#235 = CARTESIAN_POINT ( 'NONE',  ( 6.000000000000000888, 0.000000000000000000, 0.3650000000000043765 ) ) ;
#236 = FACE_OUTER_BOUND ( 'NONE', #247, .T. ) ;
#237 = APPROVAL ( #116, 'UNSPECIFIED' ) ;
#238 = DIRECTION ( 'NONE',  ( -1.000000000000000000, 0.000000000000000000, 0.000000000000000000 ) ) ;
#239 = CC_DESIGN_SECURITY_CLASSIFICATION ( #161, ( #207 ) ) ;
#240 = APPROVAL_ROLE ( '' ) ;
#241 = EDGE_LOOP ( 'NONE', ( #179, #113, #94, #221 ) ) ;
#242 = PERSON_AND_ORGANIZATION_ROLE ( 'design_supplier' ) ;
#243 = VECTOR ( 'NONE', #57, 39.37007874015748143 ) ;
#244 = PERSON_AND_ORGANIZATION ( #6, #114 ) ;
#245 = EDGE_CURVE ( 'NONE', #5, #3, #275, .T. ) ;
#246 = PERSON_AND_ORGANIZATION_ROLE ( 'creator' ) ;
#247 = EDGE_LOOP ( 'NONE', ( #95, #90 ) ) ;
#248 = CARTESIAN_POINT ( 'NONE',  ( -5.989999999999986002, 4.592425496802573602E-17, -0.3750000000000000555 ) ) ;
#249 = AXIS2_PLACEMENT_3D ( 'NONE', #147, #229, #53 ) ;
#250 = VECTOR ( 'NONE', #150, 39.37007874015748143 ) ;
#251 = LINE ( 'NONE', #51, #224 ) ;
#252 = CARTESIAN_POINT ( 'NONE',  ( -6.000000000000000888, 0.000000000000000000, 0.000000000000000000 ) ) ;
#253 = DIRECTION ( 'NONE',  ( -1.000000000000000000, -0.000000000000000000, -0.000000000000000000 ) ) ;
#254 = DIRECTION ( 'NONE',  ( -1.000000000000000000, 0.000000000000000000, 0.000000000000000000 ) ) ;
#255 = APPLICATION_CONTEXT ( 'configuration controlled 3d designs of mechanical parts and assemblies' ) ;
#256 =( CONVERSION_BASED_UNIT ( 'INCH', #60 ) LENGTH_UNIT ( ) NAMED_UNIT ( #177 ) );
#257 = CIRCLE ( 'NONE', #195, 0.3750000000000000555 ) ;
#258 = EDGE_CURVE ( 'NONE', #260, #69, #194, .T. ) ;
#259 = AXIS2_PLACEMENT_3D ( 'NONE', #33, #228, #270 ) ;
#260 = VERTEX_POINT ( 'NONE', #216 ) ;
#261 = PERSON_AND_ORGANIZATION ( #6, #114 ) ;
#262 = ORIENTED_EDGE ( 'NONE', *, *, #21, .T. ) ;
#263 = LOCAL_TIME ( 8, 30, 47.00000000000000000, #197 ) ;
#264 = DATE_AND_TIME ( #155, #87 ) ;
#265 = ORIENTED_EDGE ( 'NONE', *, *, #86, .T. ) ;
#266 = DIRECTION ( 'NONE',  ( 0.000000000000000000, 0.000000000000000000, -1.000000000000000000 ) ) ;
#267 = ADVANCED_FACE ( 'NONE', ( #83 ), #162, .T. ) ;
#268 = DIRECTION ( 'NONE',  ( 0.000000000000000000, 0.000000000000000000, -1.000000000000000000 ) ) ;
#269 = AXIS2_PLACEMENT_3D ( 'NONE', #42, #193, #14 ) ;
#270 = DIRECTION ( 'NONE',  ( 0.000000000000000000, 0.000000000000000000, -1.000000000000000000 ) ) ;
#271 =( GEOMETRIC_REPRESENTATION_CONTEXT ( 3 ) GLOBAL_UNCERTAINTY_ASSIGNED_CONTEXT ( ( #165 ) ) GLOBAL_UNIT_ASSIGNED_CONTEXT ( ( #256, #41, #19 ) ) REPRESENTATION_CONTEXT ( 'NONE', 'WORKASPACE' ) );
#272 = VERTEX_POINT ( 'NONE', #278 ) ;
#273 = CC_DESIGN_PERSON_AND_ORGANIZATION_ASSIGNMENT ( #112, #66, ( #207 ) ) ;
#274 = CARTESIAN_POINT ( 'NONE',  ( -5.989999999999986002, 4.592425496802575451E-17, 0.3750000000000000555 ) ) ;
#275 = LINE ( 'NONE', #276, #243 ) ;
#276 = CARTESIAN_POINT ( 'NONE',  ( 6.000000000000000888, 4.469960816887892787E-17, -0.3650000000000043765 ) ) ;
#277 = DIRECTION ( 'NONE',  ( 0.7071067811866296182, 0.000000000000000000, -0.7071067811864654162 ) ) ;
#278 = CARTESIAN_POINT ( 'NONE',  ( -6.000000000000000888, 4.531193156845133971E-17, 0.3649999999999880007 ) ) ;
ENDSEC;
END-ISO-10303-21;
