ISO-10303-21;
HEADER;
FILE_DESCRIPTION (( 'STEP AP203' ),
    '1' );
FILE_NAME ('NIL12-036.000-SL.step',
    '2023-06-07T12:30:42',
    ( '' ),
    ( '' ),
    'SwSTEP 2.0',
    'SolidWorks 2021',
    '' );
FILE_SCHEMA (( 'CONFIG_CONTROL_DESIGN' ));
ENDSEC;

DATA;
#1 = ADVANCED_FACE ( 'NONE', ( #64 ), #96, .T. ) ;
#2 = ORIENTED_EDGE ( 'NONE', *, *, #200, .F. ) ;
#3 = PERSON_AND_ORGANIZATION ( #246, #233 ) ;
#4 = CIRCLE ( 'NONE', #33, 0.3750000000000000555 ) ;
#5 = FACE_OUTER_BOUND ( 'NONE', #158, .T. ) ;
#6 = PERSON_AND_ORGANIZATION ( #246, #233 ) ;
#7 = CARTESIAN_POINT ( 'NONE',  ( -17.98999999999999844, 0.000000000000000000, 0.000000000000000000 ) ) ;
#8 = CARTESIAN_POINT ( 'NONE',  ( -17.98999999999999844, 0.000000000000000000, 0.000000000000000000 ) ) ;
#9 = DIRECTION ( 'NONE',  ( -1.000000000000000000, -0.000000000000000000, -0.000000000000000000 ) ) ;
#10 = LINE ( 'NONE', #223, #270 ) ;
#11 = EDGE_CURVE ( 'NONE', #216, #235, #132, .T. ) ;
#12 = APPROVAL ( #43, 'UNSPECIFIED' ) ;
#13 = CARTESIAN_POINT ( 'NONE',  ( 17.98999999999999844, 0.000000000000000000, 0.000000000000000000 ) ) ;
#14 = CC_DESIGN_APPROVAL ( #105, ( #91 ) ) ;
#15 = DIRECTION ( 'NONE',  ( 0.000000000000000000, 0.000000000000000000, 1.000000000000000000 ) ) ;
#16 = LENGTH_MEASURE_WITH_UNIT ( LENGTH_MEASURE( 0.02539999999999999897 ), #125 );
#17 = DIRECTION ( 'NONE',  ( 0.000000000000000000, 0.000000000000000000, 1.000000000000000000 ) ) ;
#18 = PERSON_AND_ORGANIZATION_ROLE ( 'creator' ) ;
#19 = ORIENTED_EDGE ( 'NONE', *, *, #239, .T. ) ;
#20 = ADVANCED_FACE ( 'NONE', ( #5 ), #82, .T. ) ;
#21 = LINE ( 'NONE', #93, #276 ) ;
#22 = PERSON_AND_ORGANIZATION_ROLE ( 'design_owner' ) ;
#23 = CARTESIAN_POINT ( 'NONE',  ( -17.98999999999999844, 0.000000000000000000, 0.000000000000000000 ) ) ;
#24 = PERSON_AND_ORGANIZATION ( #246, #233 ) ;
#25 = AXIS2_PLACEMENT_3D ( 'NONE', #196, #17, #136 ) ;
#26 = DIRECTION ( 'NONE',  ( 0.000000000000000000, 0.000000000000000000, 1.000000000000000000 ) ) ;
#27 = DIRECTION ( 'NONE',  ( 1.000000000000000000, -0.000000000000000000, -0.000000000000000000 ) ) ;
#28 = FACE_OUTER_BOUND ( 'NONE', #197, .T. ) ;
#29 = ADVANCED_FACE ( 'NONE', ( #117 ), #261, .F. ) ;
#30 = LINE ( 'NONE', #268, #37 ) ;
#31 = DIRECTION ( 'NONE',  ( 1.000000000000000000, 0.000000000000000000, 0.000000000000000000 ) ) ;
#32 = FACE_OUTER_BOUND ( 'NONE', #275, .T. ) ;
#33 = AXIS2_PLACEMENT_3D ( 'NONE', #269, #201, #97 ) ;
#34 = CARTESIAN_POINT ( 'NONE',  ( 18.00000000000000000, 0.000000000000000000, 0.000000000000000000 ) ) ;
#35 = APPROVAL_DATE_TIME ( #255, #206 ) ;
#36 = AXIS2_PLACEMENT_3D ( 'NONE', #238, #143, #116 ) ;
#37 = VECTOR ( 'NONE', #171, 39.37007874015748143 ) ;
#38 = PERSON_AND_ORGANIZATION ( #246, #233 ) ;
#39 = ORIENTED_EDGE ( 'NONE', *, *, #253, .F. ) ;
#40 = EDGE_LOOP ( 'NONE', ( #140, #19 ) ) ;
#41 = MANIFOLD_SOLID_BREP ( 'Chamfer1', #249 ) ;
#42 = DIMENSIONAL_EXPONENTS ( 1.000000000000000000, 0.000000000000000000, 0.000000000000000000, 0.000000000000000000, 0.000000000000000000, 0.000000000000000000, 0.000000000000000000 ) ;
#43 = APPROVAL_STATUS ( 'not_yet_approved' ) ;
#44 = DIRECTION ( 'NONE',  ( -0.7071067811867093322, 0.000000000000000000, 0.7071067811863858132 ) ) ;
#45 = PERSON_AND_ORGANIZATION ( #246, #233 ) ;
#46 = DIRECTION ( 'NONE',  ( 0.000000000000000000, 0.000000000000000000, -1.000000000000000000 ) ) ;
#47 = DIRECTION ( 'NONE',  ( 1.000000000000000000, -0.000000000000000000, -0.000000000000000000 ) ) ;
#48 = ORIENTED_EDGE ( 'NONE', *, *, #67, .T. ) ;
#49 = DIRECTION ( 'NONE',  ( -1.000000000000000000, -0.000000000000000000, -0.000000000000000000 ) ) ;
#50 = DIRECTION ( 'NONE',  ( 0.000000000000000000, 0.000000000000000000, -1.000000000000000000 ) ) ;
#51 = CC_DESIGN_DATE_AND_TIME_ASSIGNMENT ( #188, #56, ( #91 ) ) ;
#52 = DIRECTION ( 'NONE',  ( 0.000000000000000000, 0.000000000000000000, 1.000000000000000000 ) ) ;
#53 = CARTESIAN_POINT ( 'NONE',  ( -18.00000000000000000, 0.000000000000000000, -0.3649999999999967715 ) ) ;
#54 = CIRCLE ( 'NONE', #63, 0.3650000000000011569 ) ;
#55 = CARTESIAN_POINT ( 'NONE',  ( 18.00000000000000000, 4.469960816887853344E-17, -0.3650000000000011569 ) ) ;
#56 = DATE_TIME_ROLE ( 'creation_date' ) ;
#57 = AXIS2_PLACEMENT_3D ( 'NONE', #124, #31, #50 ) ;
#58 = APPLICATION_PROTOCOL_DEFINITION ( 'international standard', 'config_control_design', 1994, #109 ) ;
#59 = ORIENTED_EDGE ( 'NONE', *, *, #11, .T. ) ;
#60 = ADVANCED_FACE ( 'NONE', ( #66 ), #139, .T. ) ;
#61 = ORIENTED_EDGE ( 'NONE', *, *, #231, .T. ) ;
#62 = AXIS2_PLACEMENT_3D ( 'NONE', #181, #49, #26 ) ;
#63 = AXIS2_PLACEMENT_3D ( 'NONE', #162, #137, #226 ) ;
#64 = FACE_OUTER_BOUND ( 'NONE', #180, .T. ) ;
#65 = SECURITY_CLASSIFICATION_LEVEL ( 'unclassified' ) ;
#66 = FACE_OUTER_BOUND ( 'NONE', #175, .T. ) ;
#67 = EDGE_CURVE ( 'NONE', #129, #235, #21, .T. ) ;
#68 = DIRECTION ( 'NONE',  ( 1.000000000000000000, 0.000000000000000000, 0.000000000000000000 ) ) ;
#69 = LOCAL_TIME ( 8, 30, 42.00000000000000000, #258 ) ;
#70 = CARTESIAN_POINT ( 'NONE',  ( 17.98999999999999844, 4.592425496802575451E-17, -0.3750000000000000555 ) ) ;
#71 = ORIENTED_EDGE ( 'NONE', *, *, #239, .F. ) ;
#72 = EDGE_CURVE ( 'NONE', #118, #159, #242, .T. ) ;
#73 = PRODUCT_DEFINITION_SHAPE ( 'NONE', 'NONE',  #91 ) ;
#74 =( NAMED_UNIT ( * ) PLANE_ANGLE_UNIT ( ) SI_UNIT ( $, .RADIAN. ) );
#75 = APPLICATION_CONTEXT ( 'configuration controlled 3d designs of mechanical parts and assemblies' ) ;
#76 = DIRECTION ( 'NONE',  ( -1.000000000000000000, 0.000000000000000000, 0.000000000000000000 ) ) ;
#77 = AXIS2_PLACEMENT_3D ( 'NONE', #79, #98, #15 ) ;
#78 = DIRECTION ( 'NONE',  ( 0.000000000000000000, 0.000000000000000000, -1.000000000000000000 ) ) ;
#79 = CARTESIAN_POINT ( 'NONE',  ( 18.00000000000000000, 0.000000000000000000, 0.000000000000000000 ) ) ;
#80 = ADVANCED_BREP_SHAPE_REPRESENTATION ( 'NIL12-036.000-SL', ( #41, #25 ), #99 ) ;
#81 = FACE_OUTER_BOUND ( 'NONE', #102, .T. ) ;
#82 = CONICAL_SURFACE ( 'NONE', #127, 0.3750000000000000555, 0.7853981633974380649 ) ;
#83 = APPROVAL_PERSON_ORGANIZATION ( #232, #12, #101 ) ;
#84 = PERSON_AND_ORGANIZATION_ROLE ( 'design_supplier' ) ;
#85 = ORIENTED_EDGE ( 'NONE', *, *, #145, .T. ) ;
#86 = AXIS2_PLACEMENT_3D ( 'NONE', #34, #76, #52 ) ;
#87 = ORIENTED_EDGE ( 'NONE', *, *, #168, .T. ) ;
#88 = PRODUCT_DEFINITION_FORMATION_WITH_SPECIFIED_SOURCE ( 'ANY', '', #138, .NOT_KNOWN. ) ;
#89 = ORIENTED_EDGE ( 'NONE', *, *, #72, .T. ) ;
#90 = EDGE_CURVE ( 'NONE', #118, #130, #191, .T. ) ;
#91 = PRODUCT_DEFINITION ( 'UNKNOWN', '', #88, #274 ) ;
#92 = COORDINATED_UNIVERSAL_TIME_OFFSET ( 5, 0, .BEHIND. ) ;
#93 = CARTESIAN_POINT ( 'NONE',  ( 18.00000000000000000, 4.592425496802575451E-17, -0.3750000000000000555 ) ) ;
#94 = DIRECTION ( 'NONE',  ( -1.000000000000000000, -0.000000000000000000, -0.000000000000000000 ) ) ;
#95 = CIRCLE ( 'NONE', #170, 0.3750000000000000555 ) ;
#96 = CYLINDRICAL_SURFACE ( 'NONE', #62, 0.3750000000000000555 ) ;
#97 = DIRECTION ( 'NONE',  ( 0.000000000000000000, 0.000000000000000000, -1.000000000000000000 ) ) ;
#98 = DIRECTION ( 'NONE',  ( -1.000000000000000000, 0.000000000000000000, 0.000000000000000000 ) ) ;
#99 =( GEOMETRIC_REPRESENTATION_CONTEXT ( 3 ) GLOBAL_UNCERTAINTY_ASSIGNED_CONTEXT ( ( #256 ) ) GLOBAL_UNIT_ASSIGNED_CONTEXT ( ( #167, #74, #248 ) ) REPRESENTATION_CONTEXT ( 'NONE', 'WORKASPACE' ) );
#100 = CARTESIAN_POINT ( 'NONE',  ( -17.98999999999999844, 4.592425496802575451E-17, -0.3750000000000000555 ) ) ;
#101 = APPROVAL_ROLE ( '' ) ;
#102 = EDGE_LOOP ( 'NONE', ( #272, #107, #198, #219 ) ) ;
#103 = CC_DESIGN_SECURITY_CLASSIFICATION ( #147, ( #88 ) ) ;
#104 = ORIENTED_EDGE ( 'NONE', *, *, #231, .F. ) ;
#105 = APPROVAL ( #208, 'UNSPECIFIED' ) ;
#106 = APPROVAL_ROLE ( '' ) ;
#107 = ORIENTED_EDGE ( 'NONE', *, *, #200, .T. ) ;
#108 = AXIS2_PLACEMENT_3D ( 'NONE', #112, #68, #46 ) ;
#109 = APPLICATION_CONTEXT ( 'configuration controlled 3d designs of mechanical parts and assemblies' ) ;
#110 = DIRECTION ( 'NONE',  ( 0.000000000000000000, 0.000000000000000000, -1.000000000000000000 ) ) ;
#111 = APPROVAL_ROLE ( '' ) ;
#112 = CARTESIAN_POINT ( 'NONE',  ( 18.00000000000000000, 0.000000000000000000, 0.000000000000000000 ) ) ;
#113 = EDGE_CURVE ( 'NONE', #159, #216, #264, .T. ) ;
#114 = PERSON_AND_ORGANIZATION_ROLE ( 'classification_officer' ) ;
#115 = AXIS2_PLACEMENT_3D ( 'NONE', #185, #148, #225 ) ;
#116 = DIRECTION ( 'NONE',  ( 0.000000000000000000, 0.000000000000000000, -1.000000000000000000 ) ) ;
#117 = FACE_OUTER_BOUND ( 'NONE', #40, .T. ) ;
#118 = VERTEX_POINT ( 'NONE', #222 ) ;
#119 = CC_DESIGN_DATE_AND_TIME_ASSIGNMENT ( #156, #174, ( #147 ) ) ;
#120 = DIRECTION ( 'NONE',  ( 0.000000000000000000, 0.000000000000000000, -1.000000000000000000 ) ) ;
#121 = DIRECTION ( 'NONE',  ( 1.000000000000000000, -0.000000000000000000, -0.000000000000000000 ) ) ;
#122 = PLANE ( 'NONE',  #57 ) ;
#123 = ADVANCED_FACE ( 'NONE', ( #28 ), #178, .T. ) ;
#124 = CARTESIAN_POINT ( 'NONE',  ( 18.00000000000000000, 0.000000000000000000, 0.000000000000000000 ) ) ;
#125 =( LENGTH_UNIT ( ) NAMED_UNIT ( * ) SI_UNIT ( $, .METRE. ) );
#126 = DATE_AND_TIME ( #237, #252 ) ;
#127 = AXIS2_PLACEMENT_3D ( 'NONE', #8, #244, #141 ) ;
#128 = CIRCLE ( 'NONE', #263, 0.3750000000000000555 ) ;
#129 = VERTEX_POINT ( 'NONE', #70 ) ;
#130 = VERTEX_POINT ( 'NONE', #241 ) ;
#131 = CC_DESIGN_PERSON_AND_ORGANIZATION_ASSIGNMENT ( #6, #84, ( #88 ) ) ;
#132 = CIRCLE ( 'NONE', #199, 0.3750000000000000555 ) ;
#133 = CIRCLE ( 'NONE', #195, 0.3649999999999967715 ) ;
#134 = COORDINATED_UNIVERSAL_TIME_OFFSET ( 5, 0, .BEHIND. ) ;
#135 = CARTESIAN_POINT ( 'NONE',  ( 18.00000000000000000, 0.000000000000000000, 0.000000000000000000 ) ) ;
#136 = DIRECTION ( 'NONE',  ( 1.000000000000000000, 0.000000000000000000, 0.000000000000000000 ) ) ;
#137 = DIRECTION ( 'NONE',  ( 1.000000000000000000, 0.000000000000000000, 0.000000000000000000 ) ) ;
#138 = PRODUCT ( 'NIL12-036.000-SL', 'NIL12-036.000-SL', '', ( #209 ) ) ;
#139 = CONICAL_SURFACE ( 'NONE', #203, 0.3750000000000000555, 0.7853981633974380649 ) ;
#140 = ORIENTED_EDGE ( 'NONE', *, *, #253, .T. ) ;
#141 = DIRECTION ( 'NONE',  ( 0.000000000000000000, 0.000000000000000000, -1.000000000000000000 ) ) ;
#142 = CC_DESIGN_PERSON_AND_ORGANIZATION_ASSIGNMENT ( #38, #271, ( #88 ) ) ;
#143 = DIRECTION ( 'NONE',  ( 1.000000000000000000, 0.000000000000000000, 0.000000000000000000 ) ) ;
#144 = CARTESIAN_POINT ( 'NONE',  ( -17.98999999999999844, 0.000000000000000000, 0.3750000000000000555 ) ) ;
#145 = EDGE_CURVE ( 'NONE', #130, #118, #54, .T. ) ;
#146 = DIRECTION ( 'NONE',  ( -1.000000000000000000, 0.000000000000000000, 0.000000000000000000 ) ) ;
#147 = SECURITY_CLASSIFICATION ( '', '', #65 ) ;
#148 = DIRECTION ( 'NONE',  ( -1.000000000000000000, -0.000000000000000000, -0.000000000000000000 ) ) ;
#149 = CALENDAR_DATE ( 2023, 7, 6 ) ;
#150 = ORIENTED_EDGE ( 'NONE', *, *, #11, .F. ) ;
#151 = COORDINATED_UNIVERSAL_TIME_OFFSET ( 5, 0, .BEHIND. ) ;
#152 = ORIENTED_EDGE ( 'NONE', *, *, #184, .F. ) ;
#153 = ADVANCED_FACE ( 'NONE', ( #186 ), #122, .T. ) ;
#154 = CIRCLE ( 'NONE', #115, 0.3649999999999967715 ) ;
#155 = ORIENTED_EDGE ( 'NONE', *, *, #90, .T. ) ;
#156 = DATE_AND_TIME ( #179, #69 ) ;
#157 = CC_DESIGN_PERSON_AND_ORGANIZATION_ASSIGNMENT ( #24, #18, ( #91 ) ) ;
#158 = EDGE_LOOP ( 'NONE', ( #71, #61, #247, #152 ) ) ;
#159 = VERTEX_POINT ( 'NONE', #227 ) ;
#160 = VECTOR ( 'NONE', #44, 39.37007874015748143 ) ;
#161 = CC_DESIGN_APPROVAL ( #12, ( #88 ) ) ;
#162 = CARTESIAN_POINT ( 'NONE',  ( 18.00000000000000000, 0.000000000000000000, 0.000000000000000000 ) ) ;
#163 = ORIENTED_EDGE ( 'NONE', *, *, #113, .T. ) ;
#164 = DIRECTION ( 'NONE',  ( 0.7071067811865547892, 8.659560562354844111E-17, 0.7071067811865402453 ) ) ;
#165 = EDGE_CURVE ( 'NONE', #159, #129, #95, .T. ) ;
#166 = PRODUCT_RELATED_PRODUCT_CATEGORY ( 'detail', '', ( #138 ) ) ;
#167 =( CONVERSION_BASED_UNIT ( 'INCH', #16 ) LENGTH_UNIT ( ) NAMED_UNIT ( #42 ) );
#168 = EDGE_CURVE ( 'NONE', #129, #159, #4, .T. ) ;
#169 = DIRECTION ( 'NONE',  ( 0.000000000000000000, 0.000000000000000000, -1.000000000000000000 ) ) ;
#170 = AXIS2_PLACEMENT_3D ( 'NONE', #13, #146, #120 ) ;
#171 = DIRECTION ( 'NONE',  ( 0.7071067811865547892, 0.000000000000000000, -0.7071067811865402453 ) ) ;
#172 = SHAPE_DEFINITION_REPRESENTATION ( #73, #80 ) ;
#173 = DATE_AND_TIME ( #230, #250 ) ;
#174 = DATE_TIME_ROLE ( 'classification_date' ) ;
#175 = EDGE_LOOP ( 'NONE', ( #104, #39, #189, #150 ) ) ;
#176 = ORIENTED_EDGE ( 'NONE', *, *, #245, .T. ) ;
#177 = LOCAL_TIME ( 8, 30, 42.00000000000000000, #240 ) ;
#178 = CYLINDRICAL_SURFACE ( 'NONE', #204, 0.3750000000000000555 ) ;
#179 = CALENDAR_DATE ( 2023, 7, 6 ) ;
#180 = EDGE_LOOP ( 'NONE', ( #221, #87, #163, #59 ) ) ;
#181 = CARTESIAN_POINT ( 'NONE',  ( 18.00000000000000000, 0.000000000000000000, 0.000000000000000000 ) ) ;
#182 = CARTESIAN_POINT ( 'NONE',  ( 18.00000000000000000, 0.000000000000000000, 0.3650000000000011569 ) ) ;
#183 = CARTESIAN_POINT ( 'NONE',  ( -18.00000000000000000, 0.000000000000000000, 0.000000000000000000 ) ) ;
#184 = EDGE_CURVE ( 'NONE', #277, #235, #30, .T. ) ;
#185 = CARTESIAN_POINT ( 'NONE',  ( -18.00000000000000000, 0.000000000000000000, 0.000000000000000000 ) ) ;
#186 = FACE_OUTER_BOUND ( 'NONE', #212, .T. ) ;
#187 = CC_DESIGN_APPROVAL ( #206, ( #147 ) ) ;
#188 = DATE_AND_TIME ( #273, #177 ) ;
#189 = ORIENTED_EDGE ( 'NONE', *, *, #184, .T. ) ;
#190 = VERTEX_POINT ( 'NONE', #207 ) ;
#191 = CIRCLE ( 'NONE', #108, 0.3650000000000011569 ) ;
#192 = CARTESIAN_POINT ( 'NONE',  ( 18.00000000000000000, 0.000000000000000000, 0.3750000000000000555 ) ) ;
#193 = APPROVAL_DATE_TIME ( #173, #12 ) ;
#194 = DIRECTION ( 'NONE',  ( -1.000000000000000000, -0.000000000000000000, -0.000000000000000000 ) ) ;
#195 = AXIS2_PLACEMENT_3D ( 'NONE', #183, #267, #78 ) ;
#196 = CARTESIAN_POINT ( 'NONE',  ( 0.000000000000000000, 0.000000000000000000, 0.000000000000000000 ) ) ;
#197 = EDGE_LOOP ( 'NONE', ( #257, #48, #176, #213 ) ) ;
#198 = ORIENTED_EDGE ( 'NONE', *, *, #165, .F. ) ;
#199 = AXIS2_PLACEMENT_3D ( 'NONE', #7, #27, #110 ) ;
#200 = EDGE_CURVE ( 'NONE', #130, #129, #205, .T. ) ;
#201 = DIRECTION ( 'NONE',  ( -1.000000000000000000, 0.000000000000000000, 0.000000000000000000 ) ) ;
#202 = ADVANCED_FACE ( 'NONE', ( #81 ), #224, .T. ) ;
#203 = AXIS2_PLACEMENT_3D ( 'NONE', #23, #47, #262 ) ;
#204 = AXIS2_PLACEMENT_3D ( 'NONE', #135, #194, #259 ) ;
#205 = LINE ( 'NONE', #55, #214 ) ;
#206 = APPROVAL ( #217, 'UNSPECIFIED' ) ;
#207 = CARTESIAN_POINT ( 'NONE',  ( -18.00000000000000000, 4.531193156845187589E-17, 0.3649999999999967715 ) ) ;
#208 = APPROVAL_STATUS ( 'not_yet_approved' ) ;
#209 = MECHANICAL_CONTEXT ( 'NONE', #109, 'mechanical' ) ;
#210 = CC_DESIGN_PERSON_AND_ORGANIZATION_ASSIGNMENT ( #234, #22, ( #138 ) ) ;
#211 = APPLICATION_PROTOCOL_DEFINITION ( 'international standard', 'config_control_design', 1994, #75 ) ;
#212 = EDGE_LOOP ( 'NONE', ( #155, #85 ) ) ;
#213 = ORIENTED_EDGE ( 'NONE', *, *, #113, .F. ) ;
#214 = VECTOR ( 'NONE', #265, 39.37007874015748143 ) ;
#215 = ORIENTED_EDGE ( 'NONE', *, *, #168, .F. ) ;
#216 = VERTEX_POINT ( 'NONE', #144 ) ;
#217 = APPROVAL_STATUS ( 'not_yet_approved' ) ;
#218 = ADVANCED_FACE ( 'NONE', ( #32 ), #220, .T. ) ;
#219 = ORIENTED_EDGE ( 'NONE', *, *, #72, .F. ) ;
#220 = CONICAL_SURFACE ( 'NONE', #86, 0.3650000000000011569, 0.7853981633972195731 ) ;
#221 = ORIENTED_EDGE ( 'NONE', *, *, #67, .F. ) ;
#222 = CARTESIAN_POINT ( 'NONE',  ( 18.00000000000000000, 0.000000000000000000, 0.3650000000000011569 ) ) ;
#223 = CARTESIAN_POINT ( 'NONE',  ( -17.98999999999999844, 4.592425496802575451E-17, 0.3750000000000000555 ) ) ;
#224 = CONICAL_SURFACE ( 'NONE', #77, 0.3650000000000011569, 0.7853981633972195731 ) ;
#225 = DIRECTION ( 'NONE',  ( 0.000000000000000000, 0.000000000000000000, -1.000000000000000000 ) ) ;
#226 = DIRECTION ( 'NONE',  ( 0.000000000000000000, 0.000000000000000000, -1.000000000000000000 ) ) ;
#227 = CARTESIAN_POINT ( 'NONE',  ( 17.98999999999999844, 0.000000000000000000, 0.3750000000000000555 ) ) ;
#228 = VECTOR ( 'NONE', #94, 39.37007874015748143 ) ;
#229 = APPROVAL_PERSON_ORGANIZATION ( #45, #206, #106 ) ;
#230 = CALENDAR_DATE ( 2023, 7, 6 ) ;
#231 = EDGE_CURVE ( 'NONE', #190, #216, #10, .T. ) ;
#232 = PERSON_AND_ORGANIZATION ( #246, #233 ) ;
#233 = ORGANIZATION ( 'UNSPECIFIED', 'UNSPECIFIED', '' ) ;
#234 = PERSON_AND_ORGANIZATION ( #246, #233 ) ;
#235 = VERTEX_POINT ( 'NONE', #100 ) ;
#236 = CC_DESIGN_PERSON_AND_ORGANIZATION_ASSIGNMENT ( #254, #114, ( #147 ) ) ;
#237 = CALENDAR_DATE ( 2023, 7, 6 ) ;
#238 = CARTESIAN_POINT ( 'NONE',  ( -18.00000000000000000, 0.000000000000000000, 0.000000000000000000 ) ) ;
#239 = EDGE_CURVE ( 'NONE', #190, #277, #154, .T. ) ;
#240 = COORDINATED_UNIVERSAL_TIME_OFFSET ( 5, 0, .BEHIND. ) ;
#241 = CARTESIAN_POINT ( 'NONE',  ( 18.00000000000000000, 4.531193156845214090E-17, -0.3650000000000011569 ) ) ;
#242 = LINE ( 'NONE', #182, #160 ) ;
#243 = APPROVAL_PERSON_ORGANIZATION ( #3, #105, #111 ) ;
#244 = DIRECTION ( 'NONE',  ( 1.000000000000000000, -0.000000000000000000, -0.000000000000000000 ) ) ;
#245 = EDGE_CURVE ( 'NONE', #235, #216, #128, .T. ) ;
#246 = PERSON ( 'UNSPECIFIED', 'UNSPECIFIED', 'UNSPECIFIED', ('UNSPECIFIED'), ('UNSPECIFIED'), ('UNSPECIFIED') ) ;
#247 = ORIENTED_EDGE ( 'NONE', *, *, #245, .F. ) ;
#248 =( NAMED_UNIT ( * ) SI_UNIT ( $, .STERADIAN. ) SOLID_ANGLE_UNIT ( ) );
#249 = CLOSED_SHELL ( 'NONE', ( #20, #202, #123, #1, #153, #29, #218, #60 ) ) ;
#250 = LOCAL_TIME ( 8, 30, 42.00000000000000000, #134 ) ;
#251 = CARTESIAN_POINT ( 'NONE',  ( -17.98999999999999844, 0.000000000000000000, 0.000000000000000000 ) ) ;
#252 = LOCAL_TIME ( 8, 30, 42.00000000000000000, #151 ) ;
#253 = EDGE_CURVE ( 'NONE', #277, #190, #133, .T. ) ;
#254 = PERSON_AND_ORGANIZATION ( #246, #233 ) ;
#255 = DATE_AND_TIME ( #149, #266 ) ;
#256 = UNCERTAINTY_MEASURE_WITH_UNIT (LENGTH_MEASURE( 1.000000000000000082E-05 ), #167, 'distance_accuracy_value', 'NONE');
#257 = ORIENTED_EDGE ( 'NONE', *, *, #165, .T. ) ;
#258 = COORDINATED_UNIVERSAL_TIME_OFFSET ( 5, 0, .BEHIND. ) ;
#259 = DIRECTION ( 'NONE',  ( 0.000000000000000000, 0.000000000000000000, 1.000000000000000000 ) ) ;
#260 = APPROVAL_DATE_TIME ( #126, #105 ) ;
#261 = PLANE ( 'NONE',  #36 ) ;
#262 = DIRECTION ( 'NONE',  ( 0.000000000000000000, 0.000000000000000000, -1.000000000000000000 ) ) ;
#263 = AXIS2_PLACEMENT_3D ( 'NONE', #251, #121, #169 ) ;
#264 = LINE ( 'NONE', #192, #228 ) ;
#265 = DIRECTION ( 'NONE',  ( -0.7071067811867093322, 8.659560562352953310E-17, -0.7071067811863858132 ) ) ;
#266 = LOCAL_TIME ( 8, 30, 42.00000000000000000, #92 ) ;
#267 = DIRECTION ( 'NONE',  ( -1.000000000000000000, -0.000000000000000000, -0.000000000000000000 ) ) ;
#268 = CARTESIAN_POINT ( 'NONE',  ( -17.98999999999999844, 0.000000000000000000, -0.3750000000000000555 ) ) ;
#269 = CARTESIAN_POINT ( 'NONE',  ( 17.98999999999999844, 0.000000000000000000, 0.000000000000000000 ) ) ;
#270 = VECTOR ( 'NONE', #164, 39.37007874015748143 ) ;
#271 = PERSON_AND_ORGANIZATION_ROLE ( 'creator' ) ;
#272 = ORIENTED_EDGE ( 'NONE', *, *, #145, .F. ) ;
#273 = CALENDAR_DATE ( 2023, 7, 6 ) ;
#274 = DESIGN_CONTEXT ( 'detailed design', #75, 'design' ) ;
#275 = EDGE_LOOP ( 'NONE', ( #2, #278, #89, #215 ) ) ;
#276 = VECTOR ( 'NONE', #9, 39.37007874015748143 ) ;
#277 = VERTEX_POINT ( 'NONE', #53 ) ;
#278 = ORIENTED_EDGE ( 'NONE', *, *, #90, .F. ) ;
ENDSEC;
END-ISO-10303-21;
