ISO-10303-21;
HEADER;
FILE_DESCRIPTION (( 'STEP AP203' ),
    '1' );
FILE_NAME ('NIL12-024.000-SL.step',
    '2023-06-07T12:30:37',
    ( '' ),
    ( '' ),
    'SwSTEP 2.0',
    'SolidWorks 2021',
    '' );
FILE_SCHEMA (( 'CONFIG_CONTROL_DESIGN' ));
ENDSEC;

DATA;
#1 = DIRECTION ( 'NONE',  ( -0.7071067811865523467, 0.000000000000000000, 0.7071067811865426878 ) ) ;
#2 = PERSON ( 'UNSPECIFIED', 'UNSPECIFIED', 'UNSPECIFIED', ('UNSPECIFIED'), ('UNSPECIFIED'), ('UNSPECIFIED') ) ;
#3 = DIRECTION ( 'NONE',  ( 1.000000000000000000, 0.000000000000000000, 0.000000000000000000 ) ) ;
#4 = ORGANIZATION ( 'UNSPECIFIED', 'UNSPECIFIED', '' ) ;
#5 = CIRCLE ( 'NONE', #135, 0.3750000000000000555 ) ;
#6 = DIRECTION ( 'NONE',  ( 1.000000000000000000, -0.000000000000000000, -0.000000000000000000 ) ) ;
#7 = EDGE_CURVE ( 'NONE', #220, #264, #221, .T. ) ;
#8 = CC_DESIGN_PERSON_AND_ORGANIZATION_ASSIGNMENT ( #100, #237, ( #99 ) ) ;
#9 = DIRECTION ( 'NONE',  ( 0.000000000000000000, 0.000000000000000000, 1.000000000000000000 ) ) ;
#10 = PLANE ( 'NONE',  #61 ) ;
#11 = CARTESIAN_POINT ( 'NONE',  ( -11.98999999999998956, 0.000000000000000000, 0.3750000000000000555 ) ) ;
#12 = LENGTH_MEASURE_WITH_UNIT ( LENGTH_MEASURE( 0.02539999999999999897 ), #139 );
#13 = CARTESIAN_POINT ( 'NONE',  ( -11.98999999999998956, 0.000000000000000000, 0.000000000000000000 ) ) ;
#14 = DIRECTION ( 'NONE',  ( 0.000000000000000000, 0.000000000000000000, -1.000000000000000000 ) ) ;
#15 = DIRECTION ( 'NONE',  ( -1.000000000000000000, -0.000000000000000000, -0.000000000000000000 ) ) ;
#16 = DATE_AND_TIME ( #190, #144 ) ;
#17 = PERSON_AND_ORGANIZATION ( #2, #4 ) ;
#18 = PRODUCT ( 'NIL12-024.000-SL', 'NIL12-024.000-SL', '', ( #215 ) ) ;
#19 = CC_DESIGN_DATE_AND_TIME_ASSIGNMENT ( #276, #255, ( #202 ) ) ;
#20 = ORIENTED_EDGE ( 'NONE', *, *, #261, .T. ) ;
#21 = AXIS2_PLACEMENT_3D ( 'NONE', #203, #34, #227 ) ;
#22 = VERTEX_POINT ( 'NONE', #69 ) ;
#23 = CC_DESIGN_DATE_AND_TIME_ASSIGNMENT ( #121, #252, ( #130 ) ) ;
#24 = ORIENTED_EDGE ( 'NONE', *, *, #195, .T. ) ;
#25 = ORIENTED_EDGE ( 'NONE', *, *, #195, .F. ) ;
#26 = EDGE_CURVE ( 'NONE', #219, #210, #192, .T. ) ;
#27 = CARTESIAN_POINT ( 'NONE',  ( 12.00000000000000178, 4.469960816888039466E-17, -0.3650000000000163669 ) ) ;
#28 = DIRECTION ( 'NONE',  ( -1.000000000000000000, 0.000000000000000000, 0.000000000000000000 ) ) ;
#29 = DIRECTION ( 'NONE',  ( 0.000000000000000000, 0.000000000000000000, -1.000000000000000000 ) ) ;
#30 = DIRECTION ( 'NONE',  ( 1.000000000000000000, -0.000000000000000000, -0.000000000000000000 ) ) ;
#31 = CONICAL_SURFACE ( 'NONE', #101, 0.3750000000000000555, 0.7853981633976599985 ) ;
#32 =( NAMED_UNIT ( * ) SI_UNIT ( $, .STERADIAN. ) SOLID_ANGLE_UNIT ( ) );
#33 = CC_DESIGN_APPROVAL ( #225, ( #130 ) ) ;
#34 = DIRECTION ( 'NONE',  ( -1.000000000000000000, 0.000000000000000000, 0.000000000000000000 ) ) ;
#35 = EDGE_CURVE ( 'NONE', #210, #220, #173, .T. ) ;
#36 = CONICAL_SURFACE ( 'NONE', #194, 0.3650000000000163669, 0.7853981633974415066 ) ;
#37 =( NAMED_UNIT ( * ) PLANE_ANGLE_UNIT ( ) SI_UNIT ( $, .RADIAN. ) );
#38 = ORIENTED_EDGE ( 'NONE', *, *, #235, .F. ) ;
#39 = COORDINATED_UNIVERSAL_TIME_OFFSET ( 5, 0, .BEHIND. ) ;
#40 = AXIS2_PLACEMENT_3D ( 'NONE', #158, #200, #29 ) ;
#41 = CALENDAR_DATE ( 2023, 7, 6 ) ;
#42 = ORIENTED_EDGE ( 'NONE', *, *, #35, .T. ) ;
#43 = PERSON_AND_ORGANIZATION_ROLE ( 'classification_officer' ) ;
#44 = ORIENTED_EDGE ( 'NONE', *, *, #244, .T. ) ;
#45 = AXIS2_PLACEMENT_3D ( 'NONE', #251, #180, #161 ) ;
#46 = FACE_OUTER_BOUND ( 'NONE', #191, .T. ) ;
#47 = CARTESIAN_POINT ( 'NONE',  ( 12.00000000000000178, 0.000000000000000000, 0.3650000000000163669 ) ) ;
#48 = ADVANCED_FACE ( 'NONE', ( #89 ), #223, .T. ) ;
#49 = DIRECTION ( 'NONE',  ( -1.000000000000000000, -0.000000000000000000, -0.000000000000000000 ) ) ;
#50 = CARTESIAN_POINT ( 'NONE',  ( -11.98999999999998956, 4.592425496802573602E-17, -0.3750000000000000555 ) ) ;
#51 = ORIENTED_EDGE ( 'NONE', *, *, #26, .F. ) ;
#52 = FACE_OUTER_BOUND ( 'NONE', #147, .T. ) ;
#53 = CARTESIAN_POINT ( 'NONE',  ( -11.98999999999998956, 0.000000000000000000, -0.3750000000000000555 ) ) ;
#54 = AXIS2_PLACEMENT_3D ( 'NONE', #148, #124, #77 ) ;
#55 = ADVANCED_FACE ( 'NONE', ( #85 ), #36, .T. ) ;
#56 = CARTESIAN_POINT ( 'NONE',  ( -12.00000000000000178, 0.000000000000000000, 0.000000000000000000 ) ) ;
#57 = AXIS2_PLACEMENT_3D ( 'NONE', #196, #3, #88 ) ;
#58 = AXIS2_PLACEMENT_3D ( 'NONE', #119, #159, #271 ) ;
#59 = CALENDAR_DATE ( 2023, 7, 6 ) ;
#60 = ORIENTED_EDGE ( 'NONE', *, *, #154, .F. ) ;
#61 = AXIS2_PLACEMENT_3D ( 'NONE', #250, #117, #205 ) ;
#62 = PERSON_AND_ORGANIZATION_ROLE ( 'design_owner' ) ;
#63 = ORIENTED_EDGE ( 'NONE', *, *, #35, .F. ) ;
#64 = EDGE_LOOP ( 'NONE', ( #142, #38, #42, #108 ) ) ;
#65 = EDGE_LOOP ( 'NONE', ( #51, #260, #25, #63 ) ) ;
#66 = FACE_OUTER_BOUND ( 'NONE', #172, .T. ) ;
#67 = CARTESIAN_POINT ( 'NONE',  ( 12.00000000000000178, 0.000000000000000000, 0.000000000000000000 ) ) ;
#68 = CC_DESIGN_PERSON_AND_ORGANIZATION_ASSIGNMENT ( #168, #62, ( #18 ) ) ;
#69 = CARTESIAN_POINT ( 'NONE',  ( -12.00000000000000178, 4.531193156845106237E-17, 0.3649999999999836153 ) ) ;
#70 = DIRECTION ( 'NONE',  ( 0.000000000000000000, 0.000000000000000000, 1.000000000000000000 ) ) ;
#71 = APPROVAL_PERSON_ORGANIZATION ( #17, #225, #98 ) ;
#72 = CARTESIAN_POINT ( 'NONE',  ( 11.99000000000001798, 0.000000000000000000, 0.000000000000000000 ) ) ;
#73 = MANIFOLD_SOLID_BREP ( 'Chamfer1', #208 ) ;
#74 = CARTESIAN_POINT ( 'NONE',  ( 12.00000000000000178, 0.000000000000000000, 0.000000000000000000 ) ) ;
#75 = EDGE_CURVE ( 'NONE', #22, #264, #263, .T. ) ;
#76 = AXIS2_PLACEMENT_3D ( 'NONE', #56, #15, #14 ) ;
#77 = DIRECTION ( 'NONE',  ( 1.000000000000000000, 0.000000000000000000, 0.000000000000000000 ) ) ;
#78 = ADVANCED_FACE ( 'NONE', ( #66 ), #31, .T. ) ;
#79 = CALENDAR_DATE ( 2023, 7, 6 ) ;
#80 = PRODUCT_DEFINITION_SHAPE ( 'NONE', 'NONE',  #202 ) ;
#81 = PERSON_AND_ORGANIZATION ( #2, #4 ) ;
#82 = ORIENTED_EDGE ( 'NONE', *, *, #140, .F. ) ;
#83 = DATE_AND_TIME ( #79, #122 ) ;
#84 = EDGE_LOOP ( 'NONE', ( #128, #44, #245, #131 ) ) ;
#85 = FACE_OUTER_BOUND ( 'NONE', #64, .T. ) ;
#86 = DIRECTION ( 'NONE',  ( -1.000000000000000000, -0.000000000000000000, -0.000000000000000000 ) ) ;
#87 = ADVANCED_BREP_SHAPE_REPRESENTATION ( 'NIL12-024.000-SL', ( #73, #54 ), #174 ) ;
#88 = DIRECTION ( 'NONE',  ( 0.000000000000000000, 0.000000000000000000, -1.000000000000000000 ) ) ;
#89 = FACE_OUTER_BOUND ( 'NONE', #84, .T. ) ;
#90 = EDGE_CURVE ( 'NONE', #219, #170, #109, .T. ) ;
#91 = APPROVAL ( #257, 'UNSPECIFIED' ) ;
#92 = CARTESIAN_POINT ( 'NONE',  ( 12.00000000000000178, 0.000000000000000000, 0.3750000000000000555 ) ) ;
#93 = DIRECTION ( 'NONE',  ( -1.000000000000000000, 0.000000000000000000, 0.000000000000000000 ) ) ;
#94 = CARTESIAN_POINT ( 'NONE',  ( 11.99000000000001798, 4.592425496802573602E-17, -0.3750000000000000555 ) ) ;
#95 = CIRCLE ( 'NONE', #183, 0.3750000000000000555 ) ;
#96 = APPROVAL ( #123, 'UNSPECIFIED' ) ;
#97 = DIRECTION ( 'NONE',  ( 0.000000000000000000, 0.000000000000000000, -1.000000000000000000 ) ) ;
#98 = APPROVAL_ROLE ( '' ) ;
#99 = PRODUCT_DEFINITION_FORMATION_WITH_SPECIFIED_SOURCE ( 'ANY', '', #18, .NOT_KNOWN. ) ;
#100 = PERSON_AND_ORGANIZATION ( #2, #4 ) ;
#101 = AXIS2_PLACEMENT_3D ( 'NONE', #129, #243, #224 ) ;
#102 = APPLICATION_PROTOCOL_DEFINITION ( 'international standard', 'config_control_design', 1994, #157 ) ;
#103 = DATE_AND_TIME ( #143, #110 ) ;
#104 = EDGE_CURVE ( 'NONE', #170, #149, #199, .T. ) ;
#105 = CC_DESIGN_SECURITY_CLASSIFICATION ( #130, ( #99 ) ) ;
#106 = ORIENTED_EDGE ( 'NONE', *, *, #177, .T. ) ;
#107 = ORIENTED_EDGE ( 'NONE', *, *, #154, .T. ) ;
#108 = ORIENTED_EDGE ( 'NONE', *, *, #244, .F. ) ;
#109 = LINE ( 'NONE', #27, #201 ) ;
#110 = LOCAL_TIME ( 8, 30, 37.00000000000000000, #278 ) ;
#111 = CARTESIAN_POINT ( 'NONE',  ( 12.00000000000000178, 0.000000000000000000, 0.000000000000000000 ) ) ;
#112 = CARTESIAN_POINT ( 'NONE',  ( 12.00000000000000178, 0.000000000000000000, 0.000000000000000000 ) ) ;
#113 = FACE_OUTER_BOUND ( 'NONE', #178, .T. ) ;
#114 = CARTESIAN_POINT ( 'NONE',  ( 12.00000000000000178, 0.000000000000000000, 0.3650000000000163669 ) ) ;
#115 = CIRCLE ( 'NONE', #21, 0.3750000000000000555 ) ;
#116 = CARTESIAN_POINT ( 'NONE',  ( 11.99000000000001798, 0.000000000000000000, 0.3750000000000000555 ) ) ;
#117 = DIRECTION ( 'NONE',  ( 1.000000000000000000, 0.000000000000000000, 0.000000000000000000 ) ) ;
#118 =( CONVERSION_BASED_UNIT ( 'INCH', #12 ) LENGTH_UNIT ( ) NAMED_UNIT ( #217 ) );
#119 = CARTESIAN_POINT ( 'NONE',  ( 12.00000000000000178, 0.000000000000000000, 0.000000000000000000 ) ) ;
#120 = ADVANCED_FACE ( 'NONE', ( #46 ), #175, .T. ) ;
#121 = DATE_AND_TIME ( #41, #160 ) ;
#122 = LOCAL_TIME ( 8, 30, 37.00000000000000000, #185 ) ;
#123 = APPROVAL_STATUS ( 'not_yet_approved' ) ;
#124 = DIRECTION ( 'NONE',  ( 0.000000000000000000, 0.000000000000000000, 1.000000000000000000 ) ) ;
#125 = ORIENTED_EDGE ( 'NONE', *, *, #265, .F. ) ;
#126 = PERSON_AND_ORGANIZATION ( #2, #4 ) ;
#127 = ORIENTED_EDGE ( 'NONE', *, *, #75, .F. ) ;
#128 = ORIENTED_EDGE ( 'NONE', *, *, #104, .F. ) ;
#129 = CARTESIAN_POINT ( 'NONE',  ( -11.98999999999998956, 0.000000000000000000, 0.000000000000000000 ) ) ;
#130 = SECURITY_CLASSIFICATION ( '', '', #233 ) ;
#131 = ORIENTED_EDGE ( 'NONE', *, *, #140, .T. ) ;
#132 = ORIENTED_EDGE ( 'NONE', *, *, #7, .F. ) ;
#133 = CARTESIAN_POINT ( 'NONE',  ( -11.98999999999998956, 4.592425496802575451E-17, 0.3750000000000000555 ) ) ;
#134 = DIRECTION ( 'NONE',  ( 0.000000000000000000, 0.000000000000000000, -1.000000000000000000 ) ) ;
#135 = AXIS2_PLACEMENT_3D ( 'NONE', #198, #6, #176 ) ;
#136 = DIRECTION ( 'NONE',  ( 0.000000000000000000, 0.000000000000000000, -1.000000000000000000 ) ) ;
#137 = DESIGN_CONTEXT ( 'detailed design', #157, 'design' ) ;
#138 = DIRECTION ( 'NONE',  ( 1.000000000000000000, 0.000000000000000000, 0.000000000000000000 ) ) ;
#139 =( LENGTH_UNIT ( ) NAMED_UNIT ( * ) SI_UNIT ( $, .METRE. ) );
#140 = EDGE_CURVE ( 'NONE', #264, #149, #5, .T. ) ;
#141 = PERSON_AND_ORGANIZATION ( #2, #4 ) ;
#142 = ORIENTED_EDGE ( 'NONE', *, *, #90, .F. ) ;
#143 = CALENDAR_DATE ( 2023, 7, 6 ) ;
#144 = LOCAL_TIME ( 8, 30, 37.00000000000000000, #166 ) ;
#145 = AXIS2_PLACEMENT_3D ( 'NONE', #67, #49, #70 ) ;
#146 = APPROVAL_DATE_TIME ( #103, #96 ) ;
#147 = EDGE_LOOP ( 'NONE', ( #239, #236, #60, #125 ) ) ;
#148 = CARTESIAN_POINT ( 'NONE',  ( 0.000000000000000000, 0.000000000000000000, 0.000000000000000000 ) ) ;
#149 = VERTEX_POINT ( 'NONE', #50 ) ;
#150 = DIRECTION ( 'NONE',  ( -1.000000000000000000, -0.000000000000000000, -0.000000000000000000 ) ) ;
#151 = VECTOR ( 'NONE', #246, 39.37007874015748143 ) ;
#152 = DIRECTION ( 'NONE',  ( 0.7071067811863978037, 8.659560562356766960E-17, 0.7071067811866972308 ) ) ;
#153 = ORIENTED_EDGE ( 'NONE', *, *, #104, .T. ) ;
#154 = EDGE_CURVE ( 'NONE', #149, #264, #240, .T. ) ;
#155 = ORIENTED_EDGE ( 'NONE', *, *, #265, .T. ) ;
#156 = VECTOR ( 'NONE', #259, 39.37007874015748143 ) ;
#157 = APPLICATION_CONTEXT ( 'configuration controlled 3d designs of mechanical parts and assemblies' ) ;
#158 = CARTESIAN_POINT ( 'NONE',  ( -11.98999999999998956, 0.000000000000000000, 0.000000000000000000 ) ) ;
#159 = DIRECTION ( 'NONE',  ( -1.000000000000000000, 0.000000000000000000, 0.000000000000000000 ) ) ;
#160 = LOCAL_TIME ( 8, 30, 37.00000000000000000, #214 ) ;
#161 = DIRECTION ( 'NONE',  ( 0.000000000000000000, 0.000000000000000000, -1.000000000000000000 ) ) ;
#162 = APPROVAL_PERSON_ORGANIZATION ( #141, #96, #211 ) ;
#163 = FACE_OUTER_BOUND ( 'NONE', #65, .T. ) ;
#164 = APPLICATION_PROTOCOL_DEFINITION ( 'international standard', 'config_control_design', 1994, #204 ) ;
#165 = CC_DESIGN_PERSON_AND_ORGANIZATION_ASSIGNMENT ( #186, #213, ( #202 ) ) ;
#166 = COORDINATED_UNIVERSAL_TIME_OFFSET ( 5, 0, .BEHIND. ) ;
#167 = CIRCLE ( 'NONE', #258, 0.3650000000000163669 ) ;
#168 = PERSON_AND_ORGANIZATION ( #2, #4 ) ;
#169 = ADVANCED_FACE ( 'NONE', ( #113 ), #10, .F. ) ;
#170 = VERTEX_POINT ( 'NONE', #94 ) ;
#171 = SHAPE_DEFINITION_REPRESENTATION ( #80, #87 ) ;
#172 = EDGE_LOOP ( 'NONE', ( #127, #241, #155, #82 ) ) ;
#173 = LINE ( 'NONE', #47, #218 ) ;
#174 =( GEOMETRIC_REPRESENTATION_CONTEXT ( 3 ) GLOBAL_UNCERTAINTY_ASSIGNED_CONTEXT ( ( #249 ) ) GLOBAL_UNIT_ASSIGNED_CONTEXT ( ( #118, #37, #32 ) ) REPRESENTATION_CONTEXT ( 'NONE', 'WORKASPACE' ) );
#175 = CYLINDRICAL_SURFACE ( 'NONE', #145, 0.3750000000000000555 ) ;
#176 = DIRECTION ( 'NONE',  ( 0.000000000000000000, 0.000000000000000000, -1.000000000000000000 ) ) ;
#177 = EDGE_CURVE ( 'NONE', #22, #216, #253, .T. ) ;
#178 = EDGE_LOOP ( 'NONE', ( #20, #106 ) ) ;
#179 = CONICAL_SURFACE ( 'NONE', #58, 0.3650000000000163669, 0.7853981633974415066 ) ;
#180 = DIRECTION ( 'NONE',  ( -1.000000000000000000, -0.000000000000000000, -0.000000000000000000 ) ) ;
#181 = CARTESIAN_POINT ( 'NONE',  ( -12.00000000000000178, 0.000000000000000000, -0.3649999999999836153 ) ) ;
#182 = CARTESIAN_POINT ( 'NONE',  ( 12.00000000000000178, 4.531193156845307150E-17, -0.3650000000000163669 ) ) ;
#183 = AXIS2_PLACEMENT_3D ( 'NONE', #72, #93, #134 ) ;
#184 = ADVANCED_FACE ( 'NONE', ( #52 ), #193, .T. ) ;
#185 = COORDINATED_UNIVERSAL_TIME_OFFSET ( 5, 0, .BEHIND. ) ;
#186 = PERSON_AND_ORGANIZATION ( #2, #4 ) ;
#187 = APPROVAL_STATUS ( 'not_yet_approved' ) ;
#188 = CC_DESIGN_APPROVAL ( #91, ( #99 ) ) ;
#189 = EDGE_LOOP ( 'NONE', ( #277, #238 ) ) ;
#190 = CALENDAR_DATE ( 2023, 7, 6 ) ;
#191 = EDGE_LOOP ( 'NONE', ( #24, #153, #107, #132 ) ) ;
#192 = CIRCLE ( 'NONE', #57, 0.3650000000000163669 ) ;
#193 = CONICAL_SURFACE ( 'NONE', #230, 0.3750000000000000555, 0.7853981633976599985 ) ;
#194 = AXIS2_PLACEMENT_3D ( 'NONE', #112, #28, #9 ) ;
#195 = EDGE_CURVE ( 'NONE', #220, #170, #95, .T. ) ;
#196 = CARTESIAN_POINT ( 'NONE',  ( 12.00000000000000178, 0.000000000000000000, 0.000000000000000000 ) ) ;
#197 = DIRECTION ( 'NONE',  ( -0.7071067811865523467, 8.659560562354873694E-17, -0.7071067811865426878 ) ) ;
#198 = CARTESIAN_POINT ( 'NONE',  ( -11.98999999999998956, 0.000000000000000000, 0.000000000000000000 ) ) ;
#199 = LINE ( 'NONE', #266, #212 ) ;
#200 = DIRECTION ( 'NONE',  ( 1.000000000000000000, -0.000000000000000000, -0.000000000000000000 ) ) ;
#201 = VECTOR ( 'NONE', #197, 39.37007874015748143 ) ;
#202 = PRODUCT_DEFINITION ( 'UNKNOWN', '', #99, #137 ) ;
#203 = CARTESIAN_POINT ( 'NONE',  ( 11.99000000000001798, 0.000000000000000000, 0.000000000000000000 ) ) ;
#204 = APPLICATION_CONTEXT ( 'configuration controlled 3d designs of mechanical parts and assemblies' ) ;
#205 = DIRECTION ( 'NONE',  ( 0.000000000000000000, 0.000000000000000000, -1.000000000000000000 ) ) ;
#206 = ADVANCED_FACE ( 'NONE', ( #226 ), #268, .T. ) ;
#207 = CC_DESIGN_PERSON_AND_ORGANIZATION_ASSIGNMENT ( #209, #43, ( #130 ) ) ;
#208 = CLOSED_SHELL ( 'NONE', ( #184, #229, #120, #48, #206, #169, #55, #78 ) ) ;
#209 = PERSON_AND_ORGANIZATION ( #2, #4 ) ;
#210 = VERTEX_POINT ( 'NONE', #114 ) ;
#211 = APPROVAL_ROLE ( '' ) ;
#212 = VECTOR ( 'NONE', #86, 39.37007874015748143 ) ;
#213 = PERSON_AND_ORGANIZATION_ROLE ( 'creator' ) ;
#214 = COORDINATED_UNIVERSAL_TIME_OFFSET ( 5, 0, .BEHIND. ) ;
#215 = MECHANICAL_CONTEXT ( 'NONE', #204, 'mechanical' ) ;
#216 = VERTEX_POINT ( 'NONE', #181 ) ;
#217 = DIMENSIONAL_EXPONENTS ( 1.000000000000000000, 0.000000000000000000, 0.000000000000000000, 0.000000000000000000, 0.000000000000000000, 0.000000000000000000, 0.000000000000000000 ) ;
#218 = VECTOR ( 'NONE', #1, 39.37007874015748143 ) ;
#219 = VERTEX_POINT ( 'NONE', #182 ) ;
#220 = VERTEX_POINT ( 'NONE', #116 ) ;
#221 = LINE ( 'NONE', #92, #156 ) ;
#222 = AXIS2_PLACEMENT_3D ( 'NONE', #270, #228, #267 ) ;
#223 = CYLINDRICAL_SURFACE ( 'NONE', #254, 0.3750000000000000555 ) ;
#224 = DIRECTION ( 'NONE',  ( 0.000000000000000000, 0.000000000000000000, -1.000000000000000000 ) ) ;
#225 = APPROVAL ( #187, 'UNSPECIFIED' ) ;
#226 = FACE_OUTER_BOUND ( 'NONE', #189, .T. ) ;
#227 = DIRECTION ( 'NONE',  ( 0.000000000000000000, 0.000000000000000000, -1.000000000000000000 ) ) ;
#228 = DIRECTION ( 'NONE',  ( 1.000000000000000000, 0.000000000000000000, 0.000000000000000000 ) ) ;
#229 = ADVANCED_FACE ( 'NONE', ( #163 ), #179, .T. ) ;
#230 = AXIS2_PLACEMENT_3D ( 'NONE', #13, #30, #136 ) ;
#231 = APPROVAL_DATE_TIME ( #83, #91 ) ;
#232 = PRODUCT_RELATED_PRODUCT_CATEGORY ( 'detail', '', ( #18 ) ) ;
#233 = SECURITY_CLASSIFICATION_LEVEL ( 'unclassified' ) ;
#234 = APPROVAL_ROLE ( '' ) ;
#235 = EDGE_CURVE ( 'NONE', #210, #219, #167, .T. ) ;
#236 = ORIENTED_EDGE ( 'NONE', *, *, #75, .T. ) ;
#237 = PERSON_AND_ORGANIZATION_ROLE ( 'creator' ) ;
#238 = ORIENTED_EDGE ( 'NONE', *, *, #26, .T. ) ;
#239 = ORIENTED_EDGE ( 'NONE', *, *, #177, .F. ) ;
#240 = CIRCLE ( 'NONE', #40, 0.3750000000000000555 ) ;
#241 = ORIENTED_EDGE ( 'NONE', *, *, #261, .F. ) ;
#242 = DIRECTION ( 'NONE',  ( 0.000000000000000000, 0.000000000000000000, 1.000000000000000000 ) ) ;
#243 = DIRECTION ( 'NONE',  ( 1.000000000000000000, -0.000000000000000000, -0.000000000000000000 ) ) ;
#244 = EDGE_CURVE ( 'NONE', #170, #220, #115, .T. ) ;
#245 = ORIENTED_EDGE ( 'NONE', *, *, #7, .T. ) ;
#246 = DIRECTION ( 'NONE',  ( 0.7071067811863978037, 0.000000000000000000, -0.7071067811866972308 ) ) ;
#247 = APPROVAL_PERSON_ORGANIZATION ( #126, #91, #234 ) ;
#248 = LINE ( 'NONE', #53, #151 ) ;
#249 = UNCERTAINTY_MEASURE_WITH_UNIT (LENGTH_MEASURE( 1.000000000000000082E-05 ), #118, 'distance_accuracy_value', 'NONE');
#250 = CARTESIAN_POINT ( 'NONE',  ( -12.00000000000000178, 0.000000000000000000, 0.000000000000000000 ) ) ;
#251 = CARTESIAN_POINT ( 'NONE',  ( -12.00000000000000178, 0.000000000000000000, 0.000000000000000000 ) ) ;
#252 = DATE_TIME_ROLE ( 'classification_date' ) ;
#253 = CIRCLE ( 'NONE', #76, 0.3649999999999836153 ) ;
#254 = AXIS2_PLACEMENT_3D ( 'NONE', #111, #150, #242 ) ;
#255 = DATE_TIME_ROLE ( 'creation_date' ) ;
#256 = CC_DESIGN_PERSON_AND_ORGANIZATION_ASSIGNMENT ( #81, #272, ( #99 ) ) ;
#257 = APPROVAL_STATUS ( 'not_yet_approved' ) ;
#258 = AXIS2_PLACEMENT_3D ( 'NONE', #74, #138, #97 ) ;
#259 = DIRECTION ( 'NONE',  ( -1.000000000000000000, -0.000000000000000000, -0.000000000000000000 ) ) ;
#260 = ORIENTED_EDGE ( 'NONE', *, *, #90, .T. ) ;
#261 = EDGE_CURVE ( 'NONE', #216, #22, #273, .T. ) ;
#262 = LOCAL_TIME ( 8, 30, 37.00000000000000000, #39 ) ;
#263 = LINE ( 'NONE', #133, #274 ) ;
#264 = VERTEX_POINT ( 'NONE', #11 ) ;
#265 = EDGE_CURVE ( 'NONE', #216, #149, #248, .T. ) ;
#266 = CARTESIAN_POINT ( 'NONE',  ( 12.00000000000000178, 4.592425496802573602E-17, -0.3750000000000000555 ) ) ;
#267 = DIRECTION ( 'NONE',  ( 0.000000000000000000, 0.000000000000000000, -1.000000000000000000 ) ) ;
#268 = PLANE ( 'NONE',  #222 ) ;
#269 = CC_DESIGN_APPROVAL ( #96, ( #202 ) ) ;
#270 = CARTESIAN_POINT ( 'NONE',  ( 12.00000000000000178, 0.000000000000000000, 0.000000000000000000 ) ) ;
#271 = DIRECTION ( 'NONE',  ( 0.000000000000000000, 0.000000000000000000, 1.000000000000000000 ) ) ;
#272 = PERSON_AND_ORGANIZATION_ROLE ( 'design_supplier' ) ;
#273 = CIRCLE ( 'NONE', #45, 0.3649999999999836153 ) ;
#274 = VECTOR ( 'NONE', #152, 39.37007874015748143 ) ;
#275 = APPROVAL_DATE_TIME ( #16, #225 ) ;
#276 = DATE_AND_TIME ( #59, #262 ) ;
#277 = ORIENTED_EDGE ( 'NONE', *, *, #235, .T. ) ;
#278 = COORDINATED_UNIVERSAL_TIME_OFFSET ( 5, 0, .BEHIND. ) ;
ENDSEC;
END-ISO-10303-21;
