ISO-10303-21;
HEADER;
FILE_DESCRIPTION (( 'STEP AP203' ),
    '1' );
FILE_NAME ('NIL12-012.000-SL.step',
    '2023-06-07T12:30:31',
    ( '' ),
    ( '' ),
    'SwSTEP 2.0',
    'SolidWorks 2021',
    '' );
FILE_SCHEMA (( 'CONFIG_CONTROL_DESIGN' ));
ENDSEC;

DATA;
#1 =( NAMED_UNIT ( * ) PLANE_ANGLE_UNIT ( ) SI_UNIT ( $, .RADIAN. ) );
#2 = AXIS2_PLACEMENT_3D ( 'NONE', #240, #81, #149 ) ;
#3 = EDGE_CURVE ( 'NONE', #72, #230, #248, .T. ) ;
#4 = DIRECTION ( 'NONE',  ( 0.000000000000000000, 0.000000000000000000, 1.000000000000000000 ) ) ;
#5 = CARTESIAN_POINT ( 'NONE',  ( -5.989999999999986002, 4.592425496802573602E-17, -0.3750000000000000555 ) ) ;
#6 = COORDINATED_UNIVERSAL_TIME_OFFSET ( 5, 0, .BEHIND. ) ;
#7 = VERTEX_POINT ( 'NONE', #96 ) ;
#8 = AXIS2_PLACEMENT_3D ( 'NONE', #169, #168, #232 ) ;
#9 = CALENDAR_DATE ( 2023, 7, 6 ) ;
#10 = ORIENTED_EDGE ( 'NONE', *, *, #161, .T. ) ;
#11 = DATE_TIME_ROLE ( 'creation_date' ) ;
#12 = CARTESIAN_POINT ( 'NONE',  ( -6.000000000000000888, 0.000000000000000000, 0.000000000000000000 ) ) ;
#13 = DATE_AND_TIME ( #227, #43 ) ;
#14 = CC_DESIGN_APPROVAL ( #157, ( #112 ) ) ;
#15 = ORIENTED_EDGE ( 'NONE', *, *, #219, .T. ) ;
#16 = DIRECTION ( 'NONE',  ( 0.7071067811866296182, 8.659560562353927061E-17, 0.7071067811864654162 ) ) ;
#17 = DIRECTION ( 'NONE',  ( 0.000000000000000000, 0.000000000000000000, -1.000000000000000000 ) ) ;
#18 = ADVANCED_FACE ( 'NONE', ( #166 ), #22, .T. ) ;
#19 = CARTESIAN_POINT ( 'NONE',  ( -5.989999999999986002, 0.000000000000000000, 0.000000000000000000 ) ) ;
#20 = CIRCLE ( 'NONE', #105, 0.3750000000000000555 ) ;
#21 = DIRECTION ( 'NONE',  ( 0.000000000000000000, 0.000000000000000000, -1.000000000000000000 ) ) ;
#22 = CONICAL_SURFACE ( 'NONE', #218, 0.3750000000000000555, 0.7853981633973321497 ) ;
#23 = AXIS2_PLACEMENT_3D ( 'NONE', #64, #25, #190 ) ;
#24 = PRODUCT_DEFINITION_SHAPE ( 'NONE', 'NONE',  #150 ) ;
#25 = DIRECTION ( 'NONE',  ( -1.000000000000000000, 0.000000000000000000, 0.000000000000000000 ) ) ;
#26 = PERSON ( 'UNSPECIFIED', 'UNSPECIFIED', 'UNSPECIFIED', ('UNSPECIFIED'), ('UNSPECIFIED'), ('UNSPECIFIED') ) ;
#27 = AXIS2_PLACEMENT_3D ( 'NONE', #167, #187, #231 ) ;
#28 = ORIENTED_EDGE ( 'NONE', *, *, #219, .F. ) ;
#29 = MECHANICAL_CONTEXT ( 'NONE', #221, 'mechanical' ) ;
#30 = ORIENTED_EDGE ( 'NONE', *, *, #228, .T. ) ;
#31 = PERSON_AND_ORGANIZATION ( #26, #135 ) ;
#32 = EDGE_LOOP ( 'NONE', ( #69, #185, #265, #156 ) ) ;
#33 = COORDINATED_UNIVERSAL_TIME_OFFSET ( 5, 0, .BEHIND. ) ;
#34 = APPROVAL_PERSON_ORGANIZATION ( #252, #157, #92 ) ;
#35 = LINE ( 'NONE', #272, #191 ) ;
#36 = EDGE_CURVE ( 'NONE', #158, #134, #35, .T. ) ;
#37 = ORIENTED_EDGE ( 'NONE', *, *, #228, .F. ) ;
#38 = AXIS2_PLACEMENT_3D ( 'NONE', #115, #102, #273 ) ;
#39 = DIRECTION ( 'NONE',  ( -1.000000000000000000, -0.000000000000000000, -0.000000000000000000 ) ) ;
#40 = FACE_OUTER_BOUND ( 'NONE', #55, .T. ) ;
#41 = DIRECTION ( 'NONE',  ( -1.000000000000000000, -0.000000000000000000, -0.000000000000000000 ) ) ;
#42 = DIRECTION ( 'NONE',  ( 0.000000000000000000, 0.000000000000000000, 1.000000000000000000 ) ) ;
#43 = LOCAL_TIME ( 8, 30, 31.00000000000000000, #33 ) ;
#44 = FACE_OUTER_BOUND ( 'NONE', #254, .T. ) ;
#45 = CC_DESIGN_PERSON_AND_ORGANIZATION_ASSIGNMENT ( #173, #138, ( #150 ) ) ;
#46 = SHAPE_DEFINITION_REPRESENTATION ( #24, #203 ) ;
#47 = CALENDAR_DATE ( 2023, 7, 6 ) ;
#48 = CIRCLE ( 'NONE', #274, 0.3649999999999880007 ) ;
#49 = LOCAL_TIME ( 8, 30, 31.00000000000000000, #68 ) ;
#50 = ORIENTED_EDGE ( 'NONE', *, *, #133, .F. ) ;
#51 = CC_DESIGN_PERSON_AND_ORGANIZATION_ASSIGNMENT ( #31, #130, ( #193 ) ) ;
#52 = ORIENTED_EDGE ( 'NONE', *, *, #184, .F. ) ;
#53 = CC_DESIGN_APPROVAL ( #123, ( #193 ) ) ;
#54 = ORIENTED_EDGE ( 'NONE', *, *, #133, .T. ) ;
#55 = EDGE_LOOP ( 'NONE', ( #110, #54, #264, #268 ) ) ;
#56 = LINE ( 'NONE', #94, #89 ) ;
#57 = CLOSED_SHELL ( 'NONE', ( #177, #266, #237, #210, #189, #147, #82, #18 ) ) ;
#58 = EDGE_CURVE ( 'NONE', #223, #199, #80, .T. ) ;
#59 = DIRECTION ( 'NONE',  ( 0.000000000000000000, 0.000000000000000000, -1.000000000000000000 ) ) ;
#60 = APPLICATION_CONTEXT ( 'configuration controlled 3d designs of mechanical parts and assemblies' ) ;
#61 = DIRECTION ( 'NONE',  ( 1.000000000000000000, -0.000000000000000000, -0.000000000000000000 ) ) ;
#62 = FACE_OUTER_BOUND ( 'NONE', #131, .T. ) ;
#63 = FACE_OUTER_BOUND ( 'NONE', #220, .T. ) ;
#64 = CARTESIAN_POINT ( 'NONE',  ( 6.000000000000000888, 0.000000000000000000, 0.000000000000000000 ) ) ;
#65 = CARTESIAN_POINT ( 'NONE',  ( 6.000000000000000888, 0.000000000000000000, 0.3650000000000043765 ) ) ;
#66 = VECTOR ( 'NONE', #211, 39.37007874015748143 ) ;
#67 = PERSON_AND_ORGANIZATION_ROLE ( 'design_supplier' ) ;
#68 = COORDINATED_UNIVERSAL_TIME_OFFSET ( 5, 0, .BEHIND. ) ;
#69 = ORIENTED_EDGE ( 'NONE', *, *, #128, .F. ) ;
#70 = EDGE_LOOP ( 'NONE', ( #255, #28, #212, #275 ) ) ;
#71 = PERSON_AND_ORGANIZATION ( #26, #135 ) ;
#72 = VERTEX_POINT ( 'NONE', #139 ) ;
#73 = AXIS2_PLACEMENT_3D ( 'NONE', #194, #144, #235 ) ;
#74 = DIRECTION ( 'NONE',  ( 0.000000000000000000, 0.000000000000000000, 1.000000000000000000 ) ) ;
#75 = CARTESIAN_POINT ( 'NONE',  ( -6.000000000000000888, 0.000000000000000000, 0.000000000000000000 ) ) ;
#76 = VERTEX_POINT ( 'NONE', #165 ) ;
#77 = APPROVAL ( #114, 'UNSPECIFIED' ) ;
#78 = DIRECTION ( 'NONE',  ( 0.000000000000000000, 0.000000000000000000, -1.000000000000000000 ) ) ;
#79 = APPROVAL_PERSON_ORGANIZATION ( #181, #77, #271 ) ;
#80 = LINE ( 'NONE', #226, #91 ) ;
#81 = DIRECTION ( 'NONE',  ( -1.000000000000000000, -0.000000000000000000, -0.000000000000000000 ) ) ;
#82 = ADVANCED_FACE ( 'NONE', ( #120 ), #104, .T. ) ;
#83 =( CONVERSION_BASED_UNIT ( 'INCH', #258 ) LENGTH_UNIT ( ) NAMED_UNIT ( #103 ) );
#84 = DIRECTION ( 'NONE',  ( -0.7071067811865523467, 8.659560562354873694E-17, -0.7071067811865426878 ) ) ;
#85 = EDGE_CURVE ( 'NONE', #7, #76, #213, .T. ) ;
#86 = FACE_OUTER_BOUND ( 'NONE', #32, .T. ) ;
#87 = PRODUCT_RELATED_PRODUCT_CATEGORY ( 'detail', '', ( #239 ) ) ;
#88 = PERSON_AND_ORGANIZATION_ROLE ( 'design_owner' ) ;
#89 = VECTOR ( 'NONE', #140, 39.37007874015748143 ) ;
#90 = ORIENTED_EDGE ( 'NONE', *, *, #270, .F. ) ;
#91 = VECTOR ( 'NONE', #204, 39.37007874015748143 ) ;
#92 = APPROVAL_ROLE ( '' ) ;
#93 = DATE_AND_TIME ( #9, #122 ) ;
#94 = CARTESIAN_POINT ( 'NONE',  ( 6.000000000000000888, 4.592425496802573602E-17, -0.3750000000000000555 ) ) ;
#95 = PERSON_AND_ORGANIZATION_ROLE ( 'creator' ) ;
#96 = CARTESIAN_POINT ( 'NONE',  ( 5.990000000000004654, 0.000000000000000000, 0.3750000000000000555 ) ) ;
#97 = CARTESIAN_POINT ( 'NONE',  ( -6.000000000000000888, 4.531193156845133971E-17, 0.3649999999999880007 ) ) ;
#98 = CC_DESIGN_DATE_AND_TIME_ASSIGNMENT ( #241, #11, ( #150 ) ) ;
#99 = ORIENTED_EDGE ( 'NONE', *, *, #85, .F. ) ;
#100 = CIRCLE ( 'NONE', #261, 0.3650000000000043765 ) ;
#101 = AXIS2_PLACEMENT_3D ( 'NONE', #263, #74, #201 ) ;
#102 = DIRECTION ( 'NONE',  ( 1.000000000000000000, 0.000000000000000000, 0.000000000000000000 ) ) ;
#103 = DIMENSIONAL_EXPONENTS ( 1.000000000000000000, 0.000000000000000000, 0.000000000000000000, 0.000000000000000000, 0.000000000000000000, 0.000000000000000000, 0.000000000000000000 ) ;
#104 = CONICAL_SURFACE ( 'NONE', #27, 0.3650000000000043765, 0.7853981633974415066 ) ;
#105 = AXIS2_PLACEMENT_3D ( 'NONE', #108, #215, #236 ) ;
#106 = DIRECTION ( 'NONE',  ( -0.7071067811865523467, 0.000000000000000000, 0.7071067811865426878 ) ) ;
#107 = APPLICATION_PROTOCOL_DEFINITION ( 'international standard', 'config_control_design', 1994, #221 ) ;
#108 = CARTESIAN_POINT ( 'NONE',  ( 5.990000000000004654, 0.000000000000000000, 0.000000000000000000 ) ) ;
#109 = APPROVAL_ROLE ( '' ) ;
#110 = ORIENTED_EDGE ( 'NONE', *, *, #85, .T. ) ;
#111 = VECTOR ( 'NONE', #84, 39.37007874015748143 ) ;
#112 = PRODUCT_DEFINITION_FORMATION_WITH_SPECIFIED_SOURCE ( 'ANY', '', #239, .NOT_KNOWN. ) ;
#113 = EDGE_CURVE ( 'NONE', #7, #134, #119, .T. ) ;
#114 = APPROVAL_STATUS ( 'not_yet_approved' ) ;
#115 = CARTESIAN_POINT ( 'NONE',  ( 6.000000000000000888, 0.000000000000000000, 0.000000000000000000 ) ) ;
#116 = PERSON_AND_ORGANIZATION ( #26, #135 ) ;
#117 = APPLICATION_PROTOCOL_DEFINITION ( 'international standard', 'config_control_design', 1994, #60 ) ;
#118 = DIRECTION ( 'NONE',  ( 0.000000000000000000, 0.000000000000000000, -1.000000000000000000 ) ) ;
#119 = LINE ( 'NONE', #137, #66 ) ;
#120 = FACE_OUTER_BOUND ( 'NONE', #132, .T. ) ;
#121 = AXIS2_PLACEMENT_3D ( 'NONE', #159, #250, #59 ) ;
#122 = LOCAL_TIME ( 8, 30, 31.00000000000000000, #162 ) ;
#123 = APPROVAL ( #251, 'UNSPECIFIED' ) ;
#124 = CARTESIAN_POINT ( 'NONE',  ( 6.000000000000000888, 0.000000000000000000, 0.000000000000000000 ) ) ;
#125 = DIRECTION ( 'NONE',  ( 1.000000000000000000, 0.000000000000000000, 0.000000000000000000 ) ) ;
#126 = UNCERTAINTY_MEASURE_WITH_UNIT (LENGTH_MEASURE( 1.000000000000000082E-05 ), #83, 'distance_accuracy_value', 'NONE');
#127 = DIRECTION ( 'NONE',  ( 0.000000000000000000, 0.000000000000000000, -1.000000000000000000 ) ) ;
#128 = EDGE_CURVE ( 'NONE', #158, #223, #48, .T. ) ;
#129 = APPROVAL_DATE_TIME ( #225, #157 ) ;
#130 = PERSON_AND_ORGANIZATION_ROLE ( 'classification_officer' ) ;
#131 = EDGE_LOOP ( 'NONE', ( #50, #141, #175, #10 ) ) ;
#132 = EDGE_LOOP ( 'NONE', ( #52, #247, #30, #90 ) ) ;
#133 = EDGE_CURVE ( 'NONE', #76, #199, #56, .T. ) ;
#134 = VERTEX_POINT ( 'NONE', #229 ) ;
#135 = ORGANIZATION ( 'UNSPECIFIED', 'UNSPECIFIED', '' ) ;
#136 = SECURITY_CLASSIFICATION_LEVEL ( 'unclassified' ) ;
#137 = CARTESIAN_POINT ( 'NONE',  ( 6.000000000000000888, 0.000000000000000000, 0.3750000000000000555 ) ) ;
#138 = PERSON_AND_ORGANIZATION_ROLE ( 'creator' ) ;
#139 = CARTESIAN_POINT ( 'NONE',  ( 6.000000000000000888, 4.531193156845233811E-17, -0.3650000000000043765 ) ) ;
#140 = DIRECTION ( 'NONE',  ( -1.000000000000000000, -0.000000000000000000, -0.000000000000000000 ) ) ;
#141 = ORIENTED_EDGE ( 'NONE', *, *, #270, .T. ) ;
#142 = DIRECTION ( 'NONE',  ( 0.000000000000000000, 0.000000000000000000, -1.000000000000000000 ) ) ;
#143 = EDGE_CURVE ( 'NONE', #199, #134, #246, .T. ) ;
#144 = DIRECTION ( 'NONE',  ( 1.000000000000000000, 0.000000000000000000, 0.000000000000000000 ) ) ;
#145 = VECTOR ( 'NONE', #106, 39.37007874015748143 ) ;
#146 = CIRCLE ( 'NONE', #2, 0.3649999999999880007 ) ;
#147 = ADVANCED_FACE ( 'NONE', ( #180 ), #269, .F. ) ;
#148 =( NAMED_UNIT ( * ) SI_UNIT ( $, .STERADIAN. ) SOLID_ANGLE_UNIT ( ) );
#149 = DIRECTION ( 'NONE',  ( 0.000000000000000000, 0.000000000000000000, -1.000000000000000000 ) ) ;
#150 = PRODUCT_DEFINITION ( 'UNKNOWN', '', #112, #179 ) ;
#151 = AXIS2_PLACEMENT_3D ( 'NONE', #234, #195, #21 ) ;
#152 = LINE ( 'NONE', #257, #111 ) ;
#153 = CALENDAR_DATE ( 2023, 7, 6 ) ;
#154 = CC_DESIGN_PERSON_AND_ORGANIZATION_ASSIGNMENT ( #164, #88, ( #239 ) ) ;
#155 = AXIS2_PLACEMENT_3D ( 'NONE', #124, #41, #42 ) ;
#156 = ORIENTED_EDGE ( 'NONE', *, *, #58, .F. ) ;
#157 = APPROVAL ( #244, 'UNSPECIFIED' ) ;
#158 = VERTEX_POINT ( 'NONE', #97 ) ;
#159 = CARTESIAN_POINT ( 'NONE',  ( -5.989999999999986002, 0.000000000000000000, 0.000000000000000000 ) ) ;
#160 = APPROVAL_PERSON_ORGANIZATION ( #116, #123, #109 ) ;
#161 = EDGE_CURVE ( 'NONE', #134, #199, #174, .T. ) ;
#162 = COORDINATED_UNIVERSAL_TIME_OFFSET ( 5, 0, .BEHIND. ) ;
#163 = DIRECTION ( 'NONE',  ( 1.000000000000000000, 0.000000000000000000, 0.000000000000000000 ) ) ;
#164 = PERSON_AND_ORGANIZATION ( #26, #135 ) ;
#165 = CARTESIAN_POINT ( 'NONE',  ( 5.990000000000004654, 4.592425496802573602E-17, -0.3750000000000000555 ) ) ;
#166 = FACE_OUTER_BOUND ( 'NONE', #70, .T. ) ;
#167 = CARTESIAN_POINT ( 'NONE',  ( 6.000000000000000888, 0.000000000000000000, 0.000000000000000000 ) ) ;
#168 = DIRECTION ( 'NONE',  ( 1.000000000000000000, -0.000000000000000000, -0.000000000000000000 ) ) ;
#169 = CARTESIAN_POINT ( 'NONE',  ( -5.989999999999986002, 0.000000000000000000, 0.000000000000000000 ) ) ;
#170 = CARTESIAN_POINT ( 'NONE',  ( -6.000000000000000888, 0.000000000000000000, -0.3649999999999880007 ) ) ;
#171 = PLANE ( 'NONE',  #73 ) ;
#172 =( GEOMETRIC_REPRESENTATION_CONTEXT ( 3 ) GLOBAL_UNCERTAINTY_ASSIGNED_CONTEXT ( ( #126 ) ) GLOBAL_UNIT_ASSIGNED_CONTEXT ( ( #83, #1, #148 ) ) REPRESENTATION_CONTEXT ( 'NONE', 'WORKASPACE' ) );
#173 = PERSON_AND_ORGANIZATION ( #26, #135 ) ;
#174 = CIRCLE ( 'NONE', #151, 0.3750000000000000555 ) ;
#175 = ORIENTED_EDGE ( 'NONE', *, *, #113, .T. ) ;
#176 = PERSON_AND_ORGANIZATION ( #26, #135 ) ;
#177 = ADVANCED_FACE ( 'NONE', ( #86 ), #197, .T. ) ;
#178 = DATE_AND_TIME ( #153, #233 ) ;
#179 = DESIGN_CONTEXT ( 'detailed design', #60, 'design' ) ;
#180 = FACE_OUTER_BOUND ( 'NONE', #209, .T. ) ;
#181 = PERSON_AND_ORGANIZATION ( #26, #135 ) ;
#182 = ORIENTED_EDGE ( 'NONE', *, *, #3, .F. ) ;
#183 = DIRECTION ( 'NONE',  ( -1.000000000000000000, 0.000000000000000000, 0.000000000000000000 ) ) ;
#184 = EDGE_CURVE ( 'NONE', #72, #76, #152, .T. ) ;
#185 = ORIENTED_EDGE ( 'NONE', *, *, #36, .T. ) ;
#186 = AXIS2_PLACEMENT_3D ( 'NONE', #196, #39, #4 ) ;
#187 = DIRECTION ( 'NONE',  ( -1.000000000000000000, 0.000000000000000000, 0.000000000000000000 ) ) ;
#188 =( LENGTH_UNIT ( ) NAMED_UNIT ( * ) SI_UNIT ( $, .METRE. ) );
#189 = ADVANCED_FACE ( 'NONE', ( #44 ), #171, .T. ) ;
#190 = DIRECTION ( 'NONE',  ( 0.000000000000000000, 0.000000000000000000, 1.000000000000000000 ) ) ;
#191 = VECTOR ( 'NONE', #16, 39.37007874015748143 ) ;
#192 = CC_DESIGN_DATE_AND_TIME_ASSIGNMENT ( #93, #222, ( #193 ) ) ;
#193 = SECURITY_CLASSIFICATION ( '', '', #136 ) ;
#194 = CARTESIAN_POINT ( 'NONE',  ( 6.000000000000000888, 0.000000000000000000, 0.000000000000000000 ) ) ;
#195 = DIRECTION ( 'NONE',  ( 1.000000000000000000, -0.000000000000000000, -0.000000000000000000 ) ) ;
#196 = CARTESIAN_POINT ( 'NONE',  ( 6.000000000000000888, 0.000000000000000000, 0.000000000000000000 ) ) ;
#197 = CONICAL_SURFACE ( 'NONE', #8, 0.3750000000000000555, 0.7853981633973321497 ) ;
#198 = COORDINATED_UNIVERSAL_TIME_OFFSET ( 5, 0, .BEHIND. ) ;
#199 = VERTEX_POINT ( 'NONE', #5 ) ;
#200 = CONICAL_SURFACE ( 'NONE', #23, 0.3650000000000043765, 0.7853981633974415066 ) ;
#201 = DIRECTION ( 'NONE',  ( 1.000000000000000000, 0.000000000000000000, 0.000000000000000000 ) ) ;
#202 = APPROVAL_DATE_TIME ( #13, #77 ) ;
#203 = ADVANCED_BREP_SHAPE_REPRESENTATION ( 'NIL12-012.000-SL', ( #260, #101 ), #172 ) ;
#204 = DIRECTION ( 'NONE',  ( 0.7071067811866296182, 0.000000000000000000, -0.7071067811864654162 ) ) ;
#205 = APPROVAL_DATE_TIME ( #178, #123 ) ;
#206 = AXIS2_PLACEMENT_3D ( 'NONE', #276, #183, #17 ) ;
#207 = ORIENTED_EDGE ( 'NONE', *, *, #128, .T. ) ;
#208 = CC_DESIGN_SECURITY_CLASSIFICATION ( #193, ( #112 ) ) ;
#209 = EDGE_LOOP ( 'NONE', ( #15, #207 ) ) ;
#210 = ADVANCED_FACE ( 'NONE', ( #62 ), #217, .T. ) ;
#211 = DIRECTION ( 'NONE',  ( -1.000000000000000000, -0.000000000000000000, -0.000000000000000000 ) ) ;
#212 = ORIENTED_EDGE ( 'NONE', *, *, #58, .T. ) ;
#213 = CIRCLE ( 'NONE', #206, 0.3750000000000000555 ) ;
#214 = CARTESIAN_POINT ( 'NONE',  ( 6.000000000000000888, 0.000000000000000000, 0.000000000000000000 ) ) ;
#215 = DIRECTION ( 'NONE',  ( -1.000000000000000000, 0.000000000000000000, 0.000000000000000000 ) ) ;
#216 = CC_DESIGN_PERSON_AND_ORGANIZATION_ASSIGNMENT ( #176, #67, ( #112 ) ) ;
#217 = CYLINDRICAL_SURFACE ( 'NONE', #186, 0.3750000000000000555 ) ;
#218 = AXIS2_PLACEMENT_3D ( 'NONE', #19, #61, #78 ) ;
#219 = EDGE_CURVE ( 'NONE', #223, #158, #146, .T. ) ;
#220 = EDGE_LOOP ( 'NONE', ( #182, #242, #99, #37 ) ) ;
#221 = APPLICATION_CONTEXT ( 'configuration controlled 3d designs of mechanical parts and assemblies' ) ;
#222 = DATE_TIME_ROLE ( 'classification_date' ) ;
#223 = VERTEX_POINT ( 'NONE', #170 ) ;
#224 = ORIENTED_EDGE ( 'NONE', *, *, #243, .T. ) ;
#225 = DATE_AND_TIME ( #47, #249 ) ;
#226 = CARTESIAN_POINT ( 'NONE',  ( -5.989999999999986002, 0.000000000000000000, -0.3750000000000000555 ) ) ;
#227 = CALENDAR_DATE ( 2023, 7, 6 ) ;
#228 = EDGE_CURVE ( 'NONE', #230, #7, #259, .T. ) ;
#229 = CARTESIAN_POINT ( 'NONE',  ( -5.989999999999986002, 0.000000000000000000, 0.3750000000000000555 ) ) ;
#230 = VERTEX_POINT ( 'NONE', #65 ) ;
#231 = DIRECTION ( 'NONE',  ( 0.000000000000000000, 0.000000000000000000, 1.000000000000000000 ) ) ;
#232 = DIRECTION ( 'NONE',  ( 0.000000000000000000, 0.000000000000000000, -1.000000000000000000 ) ) ;
#233 = LOCAL_TIME ( 8, 30, 31.00000000000000000, #198 ) ;
#234 = CARTESIAN_POINT ( 'NONE',  ( -5.989999999999986002, 0.000000000000000000, 0.000000000000000000 ) ) ;
#235 = DIRECTION ( 'NONE',  ( 0.000000000000000000, 0.000000000000000000, -1.000000000000000000 ) ) ;
#236 = DIRECTION ( 'NONE',  ( 0.000000000000000000, 0.000000000000000000, -1.000000000000000000 ) ) ;
#237 = ADVANCED_FACE ( 'NONE', ( #40 ), #256, .T. ) ;
#238 = AXIS2_PLACEMENT_3D ( 'NONE', #75, #163, #118 ) ;
#239 = PRODUCT ( 'NIL12-012.000-SL', 'NIL12-012.000-SL', '', ( #29 ) ) ;
#240 = CARTESIAN_POINT ( 'NONE',  ( -6.000000000000000888, 0.000000000000000000, 0.000000000000000000 ) ) ;
#241 = DATE_AND_TIME ( #267, #49 ) ;
#242 = ORIENTED_EDGE ( 'NONE', *, *, #184, .T. ) ;
#243 = EDGE_CURVE ( 'NONE', #230, #72, #100, .T. ) ;
#244 = APPROVAL_STATUS ( 'not_yet_approved' ) ;
#245 = ORIENTED_EDGE ( 'NONE', *, *, #3, .T. ) ;
#246 = CIRCLE ( 'NONE', #121, 0.3750000000000000555 ) ;
#247 = ORIENTED_EDGE ( 'NONE', *, *, #243, .F. ) ;
#248 = CIRCLE ( 'NONE', #38, 0.3650000000000043765 ) ;
#249 = LOCAL_TIME ( 8, 30, 31.00000000000000000, #6 ) ;
#250 = DIRECTION ( 'NONE',  ( 1.000000000000000000, -0.000000000000000000, -0.000000000000000000 ) ) ;
#251 = APPROVAL_STATUS ( 'not_yet_approved' ) ;
#252 = PERSON_AND_ORGANIZATION ( #26, #135 ) ;
#253 = DIRECTION ( 'NONE',  ( -1.000000000000000000, -0.000000000000000000, -0.000000000000000000 ) ) ;
#254 = EDGE_LOOP ( 'NONE', ( #224, #245 ) ) ;
#255 = ORIENTED_EDGE ( 'NONE', *, *, #36, .F. ) ;
#256 = CYLINDRICAL_SURFACE ( 'NONE', #155, 0.3750000000000000555 ) ;
#257 = CARTESIAN_POINT ( 'NONE',  ( 6.000000000000000888, 4.469960816887892787E-17, -0.3650000000000043765 ) ) ;
#258 = LENGTH_MEASURE_WITH_UNIT ( LENGTH_MEASURE( 0.02539999999999999897 ), #188 );
#259 = LINE ( 'NONE', #278, #145 ) ;
#260 = MANIFOLD_SOLID_BREP ( 'Chamfer1', #57 ) ;
#261 = AXIS2_PLACEMENT_3D ( 'NONE', #214, #125, #127 ) ;
#262 = CC_DESIGN_APPROVAL ( #77, ( #150 ) ) ;
#263 = CARTESIAN_POINT ( 'NONE',  ( 0.000000000000000000, 0.000000000000000000, 0.000000000000000000 ) ) ;
#264 = ORIENTED_EDGE ( 'NONE', *, *, #143, .T. ) ;
#265 = ORIENTED_EDGE ( 'NONE', *, *, #143, .F. ) ;
#266 = ADVANCED_FACE ( 'NONE', ( #63 ), #200, .T. ) ;
#267 = CALENDAR_DATE ( 2023, 7, 6 ) ;
#268 = ORIENTED_EDGE ( 'NONE', *, *, #113, .F. ) ;
#269 = PLANE ( 'NONE',  #238 ) ;
#270 = EDGE_CURVE ( 'NONE', #76, #7, #20, .T. ) ;
#271 = APPROVAL_ROLE ( '' ) ;
#272 = CARTESIAN_POINT ( 'NONE',  ( -5.989999999999986002, 4.592425496802575451E-17, 0.3750000000000000555 ) ) ;
#273 = DIRECTION ( 'NONE',  ( 0.000000000000000000, 0.000000000000000000, -1.000000000000000000 ) ) ;
#274 = AXIS2_PLACEMENT_3D ( 'NONE', #12, #253, #142 ) ;
#275 = ORIENTED_EDGE ( 'NONE', *, *, #161, .F. ) ;
#276 = CARTESIAN_POINT ( 'NONE',  ( 5.990000000000004654, 0.000000000000000000, 0.000000000000000000 ) ) ;
#277 = CC_DESIGN_PERSON_AND_ORGANIZATION_ASSIGNMENT ( #71, #95, ( #112 ) ) ;
#278 = CARTESIAN_POINT ( 'NONE',  ( 6.000000000000000888, 0.000000000000000000, 0.3650000000000043765 ) ) ;
ENDSEC;
END-ISO-10303-21;
