ISO-10303-21;
HEADER;
FILE_DESCRIPTION (( 'STEP AP203' ),
    '1' );
FILE_NAME ('NIL10SS-036.000-SL.step',
    '2023-06-07T12:30:26',
    ( '' ),
    ( '' ),
    'SwSTEP 2.0',
    'SolidWorks 2021',
    '' );
FILE_SCHEMA (( 'CONFIG_CONTROL_DESIGN' ));
ENDSEC;

DATA;
#1 = CIRCLE ( 'NONE', #65, 0.3025000000000026001 ) ;
#2 = CC_DESIGN_SECURITY_CLASSIFICATION ( #239, ( #184 ) ) ;
#3 = FACE_OUTER_BOUND ( 'NONE', #171, .T. ) ;
#4 = CC_DESIGN_PERSON_AND_ORGANIZATION_ASSIGNMENT ( #17, #135, ( #254 ) ) ;
#5 = ORIENTED_EDGE ( 'NONE', *, *, #179, .T. ) ;
#6 = ORIENTED_EDGE ( 'NONE', *, *, #73, .T. ) ;
#7 = ORIENTED_EDGE ( 'NONE', *, *, #98, .F. ) ;
#8 = SECURITY_CLASSIFICATION_LEVEL ( 'unclassified' ) ;
#9 = CC_DESIGN_PERSON_AND_ORGANIZATION_ASSIGNMENT ( #106, #64, ( #184 ) ) ;
#10 = ORIENTED_EDGE ( 'NONE', *, *, #232, .T. ) ;
#11 = EDGE_LOOP ( 'NONE', ( #95, #221, #25, #113 ) ) ;
#12 = CYLINDRICAL_SURFACE ( 'NONE', #78, 0.3125000000000000000 ) ;
#13 = DIRECTION ( 'NONE',  ( 1.000000000000000000, -0.000000000000000000, -0.000000000000000000 ) ) ;
#14 = COORDINATED_UNIVERSAL_TIME_OFFSET ( 5, 0, .BEHIND. ) ;
#15 = DIRECTION ( 'NONE',  ( -1.000000000000000000, -0.000000000000000000, -0.000000000000000000 ) ) ;
#16 = DATE_AND_TIME ( #80, #37 ) ;
#17 = PERSON_AND_ORGANIZATION ( #83, #123 ) ;
#18 = DATE_AND_TIME ( #255, #142 ) ;
#19 = ADVANCED_FACE ( 'NONE', ( #3 ), #237, .T. ) ;
#20 = VERTEX_POINT ( 'NONE', #187 ) ;
#21 = ORIENTED_EDGE ( 'NONE', *, *, #34, .T. ) ;
#22 = ADVANCED_FACE ( 'NONE', ( #68 ), #126, .T. ) ;
#23 = AXIS2_PLACEMENT_3D ( 'NONE', #55, #35, #86 ) ;
#24 = DIRECTION ( 'NONE',  ( 1.000000000000000000, -0.000000000000000000, -0.000000000000000000 ) ) ;
#25 = ORIENTED_EDGE ( 'NONE', *, *, #34, .F. ) ;
#26 = CARTESIAN_POINT ( 'NONE',  ( 18.00000000000000000, 0.000000000000000000, 0.3125000000000000000 ) ) ;
#27 = EDGE_LOOP ( 'NONE', ( #6, #43, #21, #226 ) ) ;
#28 = VECTOR ( 'NONE', #120, 39.37007874015748854 ) ;
#29 = CARTESIAN_POINT ( 'NONE',  ( 18.00000000000000000, 0.000000000000000000, 0.000000000000000000 ) ) ;
#30 = DIRECTION ( 'NONE',  ( 0.7071067811866054154, 8.659560562354224116E-17, 0.7071067811864895081 ) ) ;
#31 = AXIS2_PLACEMENT_3D ( 'NONE', #67, #109, #240 ) ;
#32 = PERSON_AND_ORGANIZATION ( #83, #123 ) ;
#33 =( GEOMETRIC_REPRESENTATION_CONTEXT ( 3 ) GLOBAL_UNCERTAINTY_ASSIGNED_CONTEXT ( ( #181 ) ) GLOBAL_UNIT_ASSIGNED_CONTEXT ( ( #60, #103, #38 ) ) REPRESENTATION_CONTEXT ( 'NONE', 'WORKASPACE' ) );
#34 = EDGE_CURVE ( 'NONE', #194, #74, #218, .T. ) ;
#35 = DIRECTION ( 'NONE',  ( 0.000000000000000000, 0.000000000000000000, 1.000000000000000000 ) ) ;
#36 = AXIS2_PLACEMENT_3D ( 'NONE', #29, #158, #153 ) ;
#37 = LOCAL_TIME ( 8, 30, 26.00000000000000000, #14 ) ;
#38 =( NAMED_UNIT ( * ) SI_UNIT ( $, .STERADIAN. ) SOLID_ANGLE_UNIT ( ) );
#39 = AXIS2_PLACEMENT_3D ( 'NONE', #75, #246, #48 ) ;
#40 = LOCAL_TIME ( 8, 30, 26.00000000000000000, #231 ) ;
#41 = LINE ( 'NONE', #215, #77 ) ;
#42 = PERSON_AND_ORGANIZATION ( #83, #123 ) ;
#43 = ORIENTED_EDGE ( 'NONE', *, *, #141, .T. ) ;
#44 = DIRECTION ( 'NONE',  ( 0.000000000000000000, 0.000000000000000000, -1.000000000000000000 ) ) ;
#45 = PRODUCT_RELATED_PRODUCT_CATEGORY ( 'detail', '', ( #276 ) ) ;
#46 = DIRECTION ( 'NONE',  ( -1.000000000000000000, 0.000000000000000000, 0.000000000000000000 ) ) ;
#47 = VERTEX_POINT ( 'NONE', #94 ) ;
#48 = DIRECTION ( 'NONE',  ( 0.000000000000000000, 0.000000000000000000, -1.000000000000000000 ) ) ;
#49 = VERTEX_POINT ( 'NONE', #165 ) ;
#50 = AXIS2_PLACEMENT_3D ( 'NONE', #70, #150, #44 ) ;
#51 = AXIS2_PLACEMENT_3D ( 'NONE', #271, #225, #81 ) ;
#52 = CARTESIAN_POINT ( 'NONE',  ( -17.98999999999998423, 3.827021247335478926E-17, 0.3125000000000000000 ) ) ;
#53 = ADVANCED_FACE ( 'NONE', ( #260 ), #182, .T. ) ;
#54 = DIRECTION ( 'NONE',  ( -1.000000000000000000, 0.000000000000000000, 0.000000000000000000 ) ) ;
#55 = CARTESIAN_POINT ( 'NONE',  ( 0.000000000000000000, 0.000000000000000000, 0.000000000000000000 ) ) ;
#56 = CONICAL_SURFACE ( 'NONE', #275, 0.3025000000000026001, 0.7853981633972570986 ) ;
#57 = CARTESIAN_POINT ( 'NONE',  ( -17.98999999999998423, 0.000000000000000000, 0.000000000000000000 ) ) ;
#58 = APPROVAL ( #210, 'UNSPECIFIED' ) ;
#59 = CARTESIAN_POINT ( 'NONE',  ( -17.98999999999998423, 0.000000000000000000, 0.000000000000000000 ) ) ;
#60 =( CONVERSION_BASED_UNIT ( 'INCH', #234 ) LENGTH_UNIT ( ) NAMED_UNIT ( #216 ) );
#61 = DATE_AND_TIME ( #132, #274 ) ;
#62 = PRODUCT_DEFINITION_SHAPE ( 'NONE', 'NONE',  #254 ) ;
#63 = SHAPE_DEFINITION_REPRESENTATION ( #62, #151 ) ;
#64 = PERSON_AND_ORGANIZATION_ROLE ( 'creator' ) ;
#65 = AXIS2_PLACEMENT_3D ( 'NONE', #72, #188, #244 ) ;
#66 = CIRCLE ( 'NONE', #224, 0.3125000000000000000 ) ;
#67 = CARTESIAN_POINT ( 'NONE',  ( 18.00000000000000000, 0.000000000000000000, 0.000000000000000000 ) ) ;
#68 = FACE_OUTER_BOUND ( 'NONE', #217, .T. ) ;
#69 = DIRECTION ( 'NONE',  ( 0.000000000000000000, 0.000000000000000000, -1.000000000000000000 ) ) ;
#70 = CARTESIAN_POINT ( 'NONE',  ( -17.98999999999998423, 0.000000000000000000, 0.000000000000000000 ) ) ;
#71 = CIRCLE ( 'NONE', #36, 0.3025000000000026001 ) ;
#72 = CARTESIAN_POINT ( 'NONE',  ( 18.00000000000000000, 0.000000000000000000, 0.000000000000000000 ) ) ;
#73 = EDGE_CURVE ( 'NONE', #20, #96, #66, .T. ) ;
#74 = VERTEX_POINT ( 'NONE', #263 ) ;
#75 = CARTESIAN_POINT ( 'NONE',  ( -18.00000000000000000, 0.000000000000000000, 0.000000000000000000 ) ) ;
#76 = ORIENTED_EDGE ( 'NONE', *, *, #73, .F. ) ;
#77 = VECTOR ( 'NONE', #252, 39.37007874015748143 ) ;
#78 = AXIS2_PLACEMENT_3D ( 'NONE', #268, #200, #138 ) ;
#79 = FACE_OUTER_BOUND ( 'NONE', #131, .T. ) ;
#80 = CALENDAR_DATE ( 2023, 7, 6 ) ;
#81 = DIRECTION ( 'NONE',  ( 0.000000000000000000, 0.000000000000000000, -1.000000000000000000 ) ) ;
#82 = APPROVAL_STATUS ( 'not_yet_approved' ) ;
#83 = PERSON ( 'UNSPECIFIED', 'UNSPECIFIED', 'UNSPECIFIED', ('UNSPECIFIED'), ('UNSPECIFIED'), ('UNSPECIFIED') ) ;
#84 = AXIS2_PLACEMENT_3D ( 'NONE', #251, #15, #100 ) ;
#85 = CALENDAR_DATE ( 2023, 7, 6 ) ;
#86 = DIRECTION ( 'NONE',  ( 1.000000000000000000, 0.000000000000000000, 0.000000000000000000 ) ) ;
#87 = CC_DESIGN_DATE_AND_TIME_ASSIGNMENT ( #16, #272, ( #254 ) ) ;
#88 = DATE_AND_TIME ( #143, #40 ) ;
#89 = PERSON_AND_ORGANIZATION_ROLE ( 'classification_officer' ) ;
#90 = DATE_TIME_ROLE ( 'classification_date' ) ;
#91 = LINE ( 'NONE', #112, #156 ) ;
#92 = LINE ( 'NONE', #258, #28 ) ;
#93 = ORIENTED_EDGE ( 'NONE', *, *, #170, .T. ) ;
#94 = CARTESIAN_POINT ( 'NONE',  ( 18.00000000000000000, 0.000000000000000000, 0.3025000000000026001 ) ) ;
#95 = ORIENTED_EDGE ( 'NONE', *, *, #179, .F. ) ;
#96 = VERTEX_POINT ( 'NONE', #129 ) ;
#97 = ORIENTED_EDGE ( 'NONE', *, *, #209, .F. ) ;
#98 = EDGE_CURVE ( 'NONE', #49, #96, #91, .T. ) ;
#99 = CARTESIAN_POINT ( 'NONE',  ( 17.98999999999999844, 0.000000000000000000, 0.000000000000000000 ) ) ;
#100 = DIRECTION ( 'NONE',  ( 0.000000000000000000, 0.000000000000000000, -1.000000000000000000 ) ) ;
#101 = PERSON_AND_ORGANIZATION ( #83, #123 ) ;
#102 = EDGE_CURVE ( 'NONE', #49, #47, #1, .T. ) ;
#103 =( NAMED_UNIT ( * ) PLANE_ANGLE_UNIT ( ) SI_UNIT ( $, .RADIAN. ) );
#104 = APPROVAL_PERSON_ORGANIZATION ( #32, #58, #178 ) ;
#105 = APPROVAL ( #82, 'UNSPECIFIED' ) ;
#106 = PERSON_AND_ORGANIZATION ( #83, #123 ) ;
#107 = PERSON_AND_ORGANIZATION ( #83, #123 ) ;
#108 = CC_DESIGN_PERSON_AND_ORGANIZATION_ASSIGNMENT ( #233, #229, ( #276 ) ) ;
#109 = DIRECTION ( 'NONE',  ( -1.000000000000000000, -0.000000000000000000, -0.000000000000000000 ) ) ;
#110 = DIRECTION ( 'NONE',  ( -1.000000000000000000, 0.000000000000000000, 0.000000000000000000 ) ) ;
#111 = ORIENTED_EDGE ( 'NONE', *, *, #170, .F. ) ;
#112 = CARTESIAN_POINT ( 'NONE',  ( 18.00000000000000000, 3.704556567420774692E-17, -0.3025000000000026001 ) ) ;
#113 = ORIENTED_EDGE ( 'NONE', *, *, #265, .F. ) ;
#114 = AXIS2_PLACEMENT_3D ( 'NONE', #147, #110, #223 ) ;
#115 = ORIENTED_EDGE ( 'NONE', *, *, #121, .T. ) ;
#116 = FACE_OUTER_BOUND ( 'NONE', #192, .T. ) ;
#117 = FACE_OUTER_BOUND ( 'NONE', #11, .T. ) ;
#118 = COORDINATED_UNIVERSAL_TIME_OFFSET ( 5, 0, .BEHIND. ) ;
#119 = APPLICATION_PROTOCOL_DEFINITION ( 'international standard', 'config_control_design', 1994, #144 ) ;
#120 = DIRECTION ( 'NONE',  ( 0.7071067811866054154, 0.000000000000000000, -0.7071067811864895081 ) ) ;
#121 = EDGE_CURVE ( 'NONE', #20, #74, #133, .T. ) ;
#122 = APPROVAL_DATE_TIME ( #61, #191 ) ;
#123 = ORGANIZATION ( 'UNSPECIFIED', 'UNSPECIFIED', '' ) ;
#124 = DESIGN_CONTEXT ( 'detailed design', #202, 'design' ) ;
#125 = PERSON_AND_ORGANIZATION ( #83, #123 ) ;
#126 = PLANE ( 'NONE',  #248 ) ;
#127 = DIRECTION ( 'NONE',  ( 0.000000000000000000, 0.000000000000000000, -1.000000000000000000 ) ) ;
#128 = VECTOR ( 'NONE', #277, 39.37007874015748143 ) ;
#129 = CARTESIAN_POINT ( 'NONE',  ( 17.98999999999999844, 3.827021247335478926E-17, -0.3125000000000000000 ) ) ;
#130 = ADVANCED_FACE ( 'NONE', ( #163 ), #257, .T. ) ;
#131 = EDGE_LOOP ( 'NONE', ( #247, #5 ) ) ;
#132 = CALENDAR_DATE ( 2023, 7, 6 ) ;
#133 = LINE ( 'NONE', #26, #128 ) ;
#134 = DIRECTION ( 'NONE',  ( 0.000000000000000000, 0.000000000000000000, -1.000000000000000000 ) ) ;
#135 = PERSON_AND_ORGANIZATION_ROLE ( 'creator' ) ;
#136 = PLANE ( 'NONE',  #51 ) ;
#137 = CIRCLE ( 'NONE', #84, 0.3024999999999851141 ) ;
#138 = DIRECTION ( 'NONE',  ( 0.000000000000000000, 0.000000000000000000, 1.000000000000000000 ) ) ;
#139 = APPROVAL_ROLE ( '' ) ;
#140 = DIRECTION ( 'NONE',  ( 1.000000000000000000, -0.000000000000000000, -0.000000000000000000 ) ) ;
#141 = EDGE_CURVE ( 'NONE', #96, #194, #41, .T. ) ;
#142 = LOCAL_TIME ( 8, 30, 26.00000000000000000, #213 ) ;
#143 = CALENDAR_DATE ( 2023, 7, 6 ) ;
#144 = APPLICATION_CONTEXT ( 'configuration controlled 3d designs of mechanical parts and assemblies' ) ;
#145 = APPROVAL_STATUS ( 'not_yet_approved' ) ;
#146 = AXIS2_PLACEMENT_3D ( 'NONE', #59, #140, #278 ) ;
#147 = CARTESIAN_POINT ( 'NONE',  ( 18.00000000000000000, 0.000000000000000000, 0.000000000000000000 ) ) ;
#148 = CARTESIAN_POINT ( 'NONE',  ( -17.98999999999998423, 0.000000000000000000, 0.000000000000000000 ) ) ;
#149 = VERTEX_POINT ( 'NONE', #169 ) ;
#150 = DIRECTION ( 'NONE',  ( 1.000000000000000000, -0.000000000000000000, -0.000000000000000000 ) ) ;
#151 = ADVANCED_BREP_SHAPE_REPRESENTATION ( 'NIL10SS-036.000-SL', ( #159, #23 ), #33 ) ;
#152 = ORIENTED_EDGE ( 'NONE', *, *, #256, .F. ) ;
#153 = DIRECTION ( 'NONE',  ( 0.000000000000000000, 0.000000000000000000, -1.000000000000000000 ) ) ;
#154 = ORIENTED_EDGE ( 'NONE', *, *, #208, .F. ) ;
#155 = CARTESIAN_POINT ( 'NONE',  ( 18.00000000000000000, 0.000000000000000000, 0.3025000000000026001 ) ) ;
#156 = VECTOR ( 'NONE', #193, 39.37007874015748143 ) ;
#157 = CC_DESIGN_DATE_AND_TIME_ASSIGNMENT ( #18, #90, ( #239 ) ) ;
#158 = DIRECTION ( 'NONE',  ( 1.000000000000000000, 0.000000000000000000, 0.000000000000000000 ) ) ;
#159 = MANIFOLD_SOLID_BREP ( 'Chamfer1', #195 ) ;
#160 = ADVANCED_FACE ( 'NONE', ( #117 ), #196, .T. ) ;
#161 = APPROVAL_DATE_TIME ( #88, #105 ) ;
#162 = ADVANCED_FACE ( 'NONE', ( #116 ), #12, .T. ) ;
#163 = FACE_OUTER_BOUND ( 'NONE', #27, .T. ) ;
#164 = APPROVAL_PERSON_ORGANIZATION ( #101, #105, #139 ) ;
#165 = CARTESIAN_POINT ( 'NONE',  ( 18.00000000000000000, 3.765788907378126809E-17, -0.3025000000000026001 ) ) ;
#166 = CARTESIAN_POINT ( 'NONE',  ( 18.00000000000000000, 0.000000000000000000, 0.000000000000000000 ) ) ;
#167 = EDGE_LOOP ( 'NONE', ( #7, #245, #199, #111 ) ) ;
#168 = ORIENTED_EDGE ( 'NONE', *, *, #261, .F. ) ;
#169 = CARTESIAN_POINT ( 'NONE',  ( -18.00000000000000000, 0.000000000000000000, -0.3024999999999851141 ) ) ;
#170 = EDGE_CURVE ( 'NONE', #96, #20, #205, .T. ) ;
#171 = EDGE_LOOP ( 'NONE', ( #264, #220, #76, #154 ) ) ;
#172 = ORIENTED_EDGE ( 'NONE', *, *, #261, .T. ) ;
#173 = AXIS2_PLACEMENT_3D ( 'NONE', #99, #250, #134 ) ;
#174 = APPROVAL_PERSON_ORGANIZATION ( #42, #191, #236 ) ;
#175 = DIRECTION ( 'NONE',  ( -0.7071067811866827979, 0.000000000000000000, 0.7071067811864123476 ) ) ;
#176 = DATE_AND_TIME ( #85, #269 ) ;
#177 = FACE_OUTER_BOUND ( 'NONE', #167, .T. ) ;
#178 = APPROVAL_ROLE ( '' ) ;
#179 = EDGE_CURVE ( 'NONE', #201, #149, #137, .T. ) ;
#180 = CC_DESIGN_APPROVAL ( #58, ( #254 ) ) ;
#181 = UNCERTAINTY_MEASURE_WITH_UNIT (LENGTH_MEASURE( 1.000000000000000082E-05 ), #60, 'distance_accuracy_value', 'NONE');
#182 = CONICAL_SURFACE ( 'NONE', #50, 0.3125000000000000000, 0.7853981633973664556 ) ;
#183 = VECTOR ( 'NONE', #175, 39.37007874015748143 ) ;
#184 = PRODUCT_DEFINITION_FORMATION_WITH_SPECIFIED_SOURCE ( 'ANY', '', #276, .NOT_KNOWN. ) ;
#185 = ADVANCED_FACE ( 'NONE', ( #177 ), #56, .T. ) ;
#186 = COORDINATED_UNIVERSAL_TIME_OFFSET ( 5, 0, .BEHIND. ) ;
#187 = CARTESIAN_POINT ( 'NONE',  ( 17.98999999999999844, 0.000000000000000000, 0.3125000000000000000 ) ) ;
#188 = DIRECTION ( 'NONE',  ( 1.000000000000000000, 0.000000000000000000, 0.000000000000000000 ) ) ;
#189 = CC_DESIGN_APPROVAL ( #191, ( #239 ) ) ;
#190 = EDGE_LOOP ( 'NONE', ( #97, #152, #266, #168 ) ) ;
#191 = APPROVAL ( #145, 'UNSPECIFIED' ) ;
#192 = EDGE_LOOP ( 'NONE', ( #259, #93, #115, #172 ) ) ;
#193 = DIRECTION ( 'NONE',  ( -0.7071067811866827979, 8.659560562353278715E-17, -0.7071067811864123476 ) ) ;
#194 = VERTEX_POINT ( 'NONE', #267 ) ;
#195 = CLOSED_SHELL ( 'NONE', ( #160, #19, #130, #162, #22, #227, #185, #53 ) ) ;
#196 = CONICAL_SURFACE ( 'NONE', #238, 0.3125000000000000000, 0.7853981633973664556 ) ;
#197 = CIRCLE ( 'NONE', #146, 0.3125000000000000000 ) ;
#198 = CC_DESIGN_APPROVAL ( #105, ( #184 ) ) ;
#199 = ORIENTED_EDGE ( 'NONE', *, *, #208, .T. ) ;
#200 = DIRECTION ( 'NONE',  ( -1.000000000000000000, -0.000000000000000000, -0.000000000000000000 ) ) ;
#201 = VERTEX_POINT ( 'NONE', #228 ) ;
#202 = APPLICATION_CONTEXT ( 'configuration controlled 3d designs of mechanical parts and assemblies' ) ;
#203 = CC_DESIGN_PERSON_AND_ORGANIZATION_ASSIGNMENT ( #107, #214, ( #184 ) ) ;
#204 = CARTESIAN_POINT ( 'NONE',  ( 18.00000000000000000, 0.000000000000000000, 0.000000000000000000 ) ) ;
#205 = CIRCLE ( 'NONE', #173, 0.3125000000000000000 ) ;
#206 = DIRECTION ( 'NONE',  ( 0.000000000000000000, 0.000000000000000000, -1.000000000000000000 ) ) ;
#207 = MECHANICAL_CONTEXT ( 'NONE', #144, 'mechanical' ) ;
#208 = EDGE_CURVE ( 'NONE', #47, #20, #230, .T. ) ;
#209 = EDGE_CURVE ( 'NONE', #201, #74, #270, .T. ) ;
#210 = APPROVAL_STATUS ( 'not_yet_approved' ) ;
#211 =( LENGTH_UNIT ( ) NAMED_UNIT ( * ) SI_UNIT ( $, .METRE. ) );
#212 = APPROVAL_DATE_TIME ( #176, #58 ) ;
#213 = COORDINATED_UNIVERSAL_TIME_OFFSET ( 5, 0, .BEHIND. ) ;
#214 = PERSON_AND_ORGANIZATION_ROLE ( 'design_supplier' ) ;
#215 = CARTESIAN_POINT ( 'NONE',  ( 18.00000000000000000, 3.827021247335478926E-17, -0.3125000000000000000 ) ) ;
#216 = DIMENSIONAL_EXPONENTS ( 1.000000000000000000, 0.000000000000000000, 0.000000000000000000, 0.000000000000000000, 0.000000000000000000, 0.000000000000000000, 0.000000000000000000 ) ;
#217 = EDGE_LOOP ( 'NONE', ( #10, #222 ) ) ;
#218 = CIRCLE ( 'NONE', #242, 0.3125000000000000000 ) ;
#219 = CIRCLE ( 'NONE', #39, 0.3024999999999851141 ) ;
#220 = ORIENTED_EDGE ( 'NONE', *, *, #98, .T. ) ;
#221 = ORIENTED_EDGE ( 'NONE', *, *, #209, .T. ) ;
#222 = ORIENTED_EDGE ( 'NONE', *, *, #102, .T. ) ;
#223 = DIRECTION ( 'NONE',  ( 0.000000000000000000, 0.000000000000000000, 1.000000000000000000 ) ) ;
#224 = AXIS2_PLACEMENT_3D ( 'NONE', #243, #46, #69 ) ;
#225 = DIRECTION ( 'NONE',  ( 1.000000000000000000, 0.000000000000000000, 0.000000000000000000 ) ) ;
#226 = ORIENTED_EDGE ( 'NONE', *, *, #121, .F. ) ;
#227 = ADVANCED_FACE ( 'NONE', ( #79 ), #136, .F. ) ;
#228 = CARTESIAN_POINT ( 'NONE',  ( -18.00000000000000000, 3.765788907378019573E-17, 0.3024999999999851141 ) ) ;
#229 = PERSON_AND_ORGANIZATION_ROLE ( 'design_owner' ) ;
#230 = LINE ( 'NONE', #155, #183 ) ;
#231 = COORDINATED_UNIVERSAL_TIME_OFFSET ( 5, 0, .BEHIND. ) ;
#232 = EDGE_CURVE ( 'NONE', #47, #49, #71, .T. ) ;
#233 = PERSON_AND_ORGANIZATION ( #83, #123 ) ;
#234 = LENGTH_MEASURE_WITH_UNIT ( LENGTH_MEASURE( 0.02539999999999999897 ), #211 );
#235 = CC_DESIGN_PERSON_AND_ORGANIZATION_ASSIGNMENT ( #125, #89, ( #239 ) ) ;
#236 = APPROVAL_ROLE ( '' ) ;
#237 = CONICAL_SURFACE ( 'NONE', #114, 0.3025000000000026001, 0.7853981633972570986 ) ;
#238 = AXIS2_PLACEMENT_3D ( 'NONE', #57, #13, #206 ) ;
#239 = SECURITY_CLASSIFICATION ( '', '', #8 ) ;
#240 = DIRECTION ( 'NONE',  ( 0.000000000000000000, 0.000000000000000000, 1.000000000000000000 ) ) ;
#241 = DIRECTION ( 'NONE',  ( 0.000000000000000000, 0.000000000000000000, -1.000000000000000000 ) ) ;
#242 = AXIS2_PLACEMENT_3D ( 'NONE', #148, #24, #127 ) ;
#243 = CARTESIAN_POINT ( 'NONE',  ( 17.98999999999999844, 0.000000000000000000, 0.000000000000000000 ) ) ;
#244 = DIRECTION ( 'NONE',  ( 0.000000000000000000, 0.000000000000000000, -1.000000000000000000 ) ) ;
#245 = ORIENTED_EDGE ( 'NONE', *, *, #232, .F. ) ;
#246 = DIRECTION ( 'NONE',  ( -1.000000000000000000, -0.000000000000000000, -0.000000000000000000 ) ) ;
#247 = ORIENTED_EDGE ( 'NONE', *, *, #256, .T. ) ;
#248 = AXIS2_PLACEMENT_3D ( 'NONE', #166, #262, #241 ) ;
#249 = DIRECTION ( 'NONE',  ( 0.000000000000000000, 0.000000000000000000, 1.000000000000000000 ) ) ;
#250 = DIRECTION ( 'NONE',  ( -1.000000000000000000, 0.000000000000000000, 0.000000000000000000 ) ) ;
#251 = CARTESIAN_POINT ( 'NONE',  ( -18.00000000000000000, 0.000000000000000000, 0.000000000000000000 ) ) ;
#252 = DIRECTION ( 'NONE',  ( -1.000000000000000000, -0.000000000000000000, -0.000000000000000000 ) ) ;
#253 = APPLICATION_PROTOCOL_DEFINITION ( 'international standard', 'config_control_design', 1994, #202 ) ;
#254 = PRODUCT_DEFINITION ( 'UNKNOWN', '', #184, #124 ) ;
#255 = CALENDAR_DATE ( 2023, 7, 6 ) ;
#256 = EDGE_CURVE ( 'NONE', #149, #201, #219, .T. ) ;
#257 = CYLINDRICAL_SURFACE ( 'NONE', #31, 0.3125000000000000000 ) ;
#258 = CARTESIAN_POINT ( 'NONE',  ( -17.98999999999998423, 0.000000000000000000, -0.3125000000000000000 ) ) ;
#259 = ORIENTED_EDGE ( 'NONE', *, *, #141, .F. ) ;
#260 = FACE_OUTER_BOUND ( 'NONE', #190, .T. ) ;
#261 = EDGE_CURVE ( 'NONE', #74, #194, #197, .T. ) ;
#262 = DIRECTION ( 'NONE',  ( 1.000000000000000000, 0.000000000000000000, 0.000000000000000000 ) ) ;
#263 = CARTESIAN_POINT ( 'NONE',  ( -17.98999999999998423, 0.000000000000000000, 0.3125000000000000000 ) ) ;
#264 = ORIENTED_EDGE ( 'NONE', *, *, #102, .F. ) ;
#265 = EDGE_CURVE ( 'NONE', #149, #194, #92, .T. ) ;
#266 = ORIENTED_EDGE ( 'NONE', *, *, #265, .T. ) ;
#267 = CARTESIAN_POINT ( 'NONE',  ( -17.98999999999998423, 3.827021247335478926E-17, -0.3125000000000000000 ) ) ;
#268 = CARTESIAN_POINT ( 'NONE',  ( 18.00000000000000000, 0.000000000000000000, 0.000000000000000000 ) ) ;
#269 = LOCAL_TIME ( 8, 30, 26.00000000000000000, #118 ) ;
#270 = LINE ( 'NONE', #52, #273 ) ;
#271 = CARTESIAN_POINT ( 'NONE',  ( -18.00000000000000000, 0.000000000000000000, 0.000000000000000000 ) ) ;
#272 = DATE_TIME_ROLE ( 'creation_date' ) ;
#273 = VECTOR ( 'NONE', #30, 39.37007874015748854 ) ;
#274 = LOCAL_TIME ( 8, 30, 26.00000000000000000, #186 ) ;
#275 = AXIS2_PLACEMENT_3D ( 'NONE', #204, #54, #249 ) ;
#276 = PRODUCT ( 'NIL10SS-036.000-SL', 'NIL10SS-036.000-SL', '', ( #207 ) ) ;
#277 = DIRECTION ( 'NONE',  ( -1.000000000000000000, -0.000000000000000000, -0.000000000000000000 ) ) ;
#278 = DIRECTION ( 'NONE',  ( 0.000000000000000000, 0.000000000000000000, -1.000000000000000000 ) ) ;
ENDSEC;
END-ISO-10303-21;
