ISO-10303-21;
HEADER;
FILE_DESCRIPTION (( 'STEP AP203' ),
    '1' );
FILE_NAME ('NIL10SS-024.000-SL.step',
    '2023-06-07T12:30:21',
    ( '' ),
    ( '' ),
    'SwSTEP 2.0',
    'SolidWorks 2021',
    '' );
FILE_SCHEMA (( 'CONFIG_CONTROL_DESIGN' ));
ENDSEC;

DATA;
#1 = APPLICATION_CONTEXT ( 'configuration controlled 3d designs of mechanical parts and assemblies' ) ;
#2 = PERSON ( 'UNSPECIFIED', 'UNSPECIFIED', 'UNSPECIFIED', ('UNSPECIFIED'), ('UNSPECIFIED'), ('UNSPECIFIED') ) ;
#3 = ORIENTED_EDGE ( 'NONE', *, *, #176, .T. ) ;
#4 = CARTESIAN_POINT ( 'NONE',  ( 12.00000000000000178, 3.765788907378193369E-17, -0.3025000000000134248 ) ) ;
#5 = ORIENTED_EDGE ( 'NONE', *, *, #146, .F. ) ;
#6 = EDGE_CURVE ( 'NONE', #93, #197, #74, .T. ) ;
#7 = LINE ( 'NONE', #177, #161 ) ;
#8 = CONICAL_SURFACE ( 'NONE', #278, 0.3125000000000000000, 0.7853981633974790322 ) ;
#9 = FACE_OUTER_BOUND ( 'NONE', #134, .T. ) ;
#10 = FACE_OUTER_BOUND ( 'NONE', #90, .T. ) ;
#11 = PLANE ( 'NONE',  #274 ) ;
#12 = PERSON_AND_ORGANIZATION ( #2, #171 ) ;
#13 = DIRECTION ( 'NONE',  ( -1.000000000000000000, 0.000000000000000000, 0.000000000000000000 ) ) ;
#14 = COORDINATED_UNIVERSAL_TIME_OFFSET ( 5, 0, .BEHIND. ) ;
#15 = AXIS2_PLACEMENT_3D ( 'NONE', #116, #179, #135 ) ;
#16 = DATE_AND_TIME ( #209, #29 ) ;
#17 = APPROVAL_STATUS ( 'not_yet_approved' ) ;
#18 = DATE_AND_TIME ( #85, #42 ) ;
#19 = DIMENSIONAL_EXPONENTS ( 1.000000000000000000, 0.000000000000000000, 0.000000000000000000, 0.000000000000000000, 0.000000000000000000, 0.000000000000000000, 0.000000000000000000 ) ;
#20 = APPROVAL_PERSON_ORGANIZATION ( #12, #108, #163 ) ;
#21 = VECTOR ( 'NONE', #198, 39.37007874015748854 ) ;
#22 = APPROVAL_PERSON_ORGANIZATION ( #169, #270, #107 ) ;
#23 = ADVANCED_FACE ( 'NONE', ( #119 ), #266, .T. ) ;
#24 = ORIENTED_EDGE ( 'NONE', *, *, #68, .T. ) ;
#25 = CC_DESIGN_PERSON_AND_ORGANIZATION_ASSIGNMENT ( #140, #269, ( #234 ) ) ;
#26 = ORIENTED_EDGE ( 'NONE', *, *, #231, .T. ) ;
#27 = DIRECTION ( 'NONE',  ( 0.000000000000000000, 0.000000000000000000, -1.000000000000000000 ) ) ;
#28 = ORIENTED_EDGE ( 'NONE', *, *, #271, .F. ) ;
#29 = LOCAL_TIME ( 8, 30, 21.00000000000000000, #122 ) ;
#30 = DIRECTION ( 'NONE',  ( -1.000000000000000000, -0.000000000000000000, -0.000000000000000000 ) ) ;
#31 = AXIS2_PLACEMENT_3D ( 'NONE', #185, #77, #228 ) ;
#32 = CARTESIAN_POINT ( 'NONE',  ( 12.00000000000000178, 0.000000000000000000, 0.3125000000000000000 ) ) ;
#33 = VERTEX_POINT ( 'NONE', #99 ) ;
#34 = DIRECTION ( 'NONE',  ( 1.000000000000000000, 0.000000000000000000, 0.000000000000000000 ) ) ;
#35 = ADVANCED_FACE ( 'NONE', ( #188 ), #11, .T. ) ;
#36 = DIRECTION ( 'NONE',  ( 0.000000000000000000, 0.000000000000000000, -1.000000000000000000 ) ) ;
#37 = DIRECTION ( 'NONE',  ( 0.000000000000000000, 0.000000000000000000, 1.000000000000000000 ) ) ;
#38 = PRODUCT_RELATED_PRODUCT_CATEGORY ( 'detail', '', ( #234 ) ) ;
#39 = DIRECTION ( 'NONE',  ( -1.000000000000000000, -0.000000000000000000, -0.000000000000000000 ) ) ;
#40 = EDGE_CURVE ( 'NONE', #178, #275, #65, .T. ) ;
#41 = CIRCLE ( 'NONE', #15, 0.3125000000000000000 ) ;
#42 = LOCAL_TIME ( 8, 30, 21.00000000000000000, #212 ) ;
#43 = CLOSED_SHELL ( 'NONE', ( #84, #49, #238, #180, #35, #165, #62, #23 ) ) ;
#44 = LOCAL_TIME ( 8, 30, 21.00000000000000000, #145 ) ;
#45 = APPROVAL_STATUS ( 'not_yet_approved' ) ;
#46 = CIRCLE ( 'NONE', #147, 0.3024999999999784528 ) ;
#47 = ORIENTED_EDGE ( 'NONE', *, *, #153, .F. ) ;
#48 = DIRECTION ( 'NONE',  ( -1.000000000000000000, -0.000000000000000000, -0.000000000000000000 ) ) ;
#49 = ADVANCED_FACE ( 'NONE', ( #267 ), #190, .T. ) ;
#50 = DIRECTION ( 'NONE',  ( 1.000000000000000000, 0.000000000000000000, 0.000000000000000000 ) ) ;
#51 = ORIENTED_EDGE ( 'NONE', *, *, #176, .F. ) ;
#52 = FACE_OUTER_BOUND ( 'NONE', #117, .T. ) ;
#53 = VERTEX_POINT ( 'NONE', #162 ) ;
#54 = EDGE_LOOP ( 'NONE', ( #257, #223, #220, #3 ) ) ;
#55 = CARTESIAN_POINT ( 'NONE',  ( 12.00000000000000178, 0.000000000000000000, 0.3025000000000134248 ) ) ;
#56 = CARTESIAN_POINT ( 'NONE',  ( 12.00000000000000178, 0.000000000000000000, 0.000000000000000000 ) ) ;
#57 = CC_DESIGN_PERSON_AND_ORGANIZATION_ASSIGNMENT ( #98, #248, ( #214 ) ) ;
#58 =( NAMED_UNIT ( * ) PLANE_ANGLE_UNIT ( ) SI_UNIT ( $, .RADIAN. ) );
#59 = DIRECTION ( 'NONE',  ( -1.000000000000000000, 0.000000000000000000, 0.000000000000000000 ) ) ;
#60 = APPROVAL_ROLE ( '' ) ;
#61 = MECHANICAL_CONTEXT ( 'NONE', #251, 'mechanical' ) ;
#62 = ADVANCED_FACE ( 'NONE', ( #10 ), #255, .T. ) ;
#63 = COORDINATED_UNIVERSAL_TIME_OFFSET ( 5, 0, .BEHIND. ) ;
#64 = AXIS2_PLACEMENT_3D ( 'NONE', #88, #219, #94 ) ;
#65 = CIRCLE ( 'NONE', #31, 0.3025000000000134248 ) ;
#66 = DESIGN_CONTEXT ( 'detailed design', #1, 'design' ) ;
#67 = CARTESIAN_POINT ( 'NONE',  ( -11.98999999999998067, 3.827021247335478926E-17, 0.3125000000000000000 ) ) ;
#68 = EDGE_CURVE ( 'NONE', #93, #130, #141, .T. ) ;
#69 = DIRECTION ( 'NONE',  ( 0.000000000000000000, 0.000000000000000000, 1.000000000000000000 ) ) ;
#70 = CARTESIAN_POINT ( 'NONE',  ( -11.98999999999998067, 0.000000000000000000, 0.000000000000000000 ) ) ;
#71 = CARTESIAN_POINT ( 'NONE',  ( 12.00000000000000178, 0.000000000000000000, 0.000000000000000000 ) ) ;
#72 = EDGE_CURVE ( 'NONE', #178, #197, #124, .T. ) ;
#73 = ORIENTED_EDGE ( 'NONE', *, *, #260, .T. ) ;
#74 = CIRCLE ( 'NONE', #246, 0.3125000000000000000 ) ;
#75 = CARTESIAN_POINT ( 'NONE',  ( -11.98999999999998067, 3.827021247335477694E-17, -0.3125000000000000000 ) ) ;
#76 = CARTESIAN_POINT ( 'NONE',  ( 11.99000000000001265, 0.000000000000000000, 0.000000000000000000 ) ) ;
#77 = DIRECTION ( 'NONE',  ( 1.000000000000000000, 0.000000000000000000, 0.000000000000000000 ) ) ;
#78 = DATE_AND_TIME ( #232, #208 ) ;
#79 = APPROVAL_DATE_TIME ( #16, #213 ) ;
#80 = APPLICATION_PROTOCOL_DEFINITION ( 'international standard', 'config_control_design', 1994, #251 ) ;
#81 = DATE_TIME_ROLE ( 'classification_date' ) ;
#82 = CC_DESIGN_PERSON_AND_ORGANIZATION_ASSIGNMENT ( #167, #204, ( #250 ) ) ;
#83 = UNCERTAINTY_MEASURE_WITH_UNIT (LENGTH_MEASURE( 1.000000000000000082E-05 ), #273, 'distance_accuracy_value', 'NONE');
#84 = ADVANCED_FACE ( 'NONE', ( #181 ), #8, .T. ) ;
#85 = CALENDAR_DATE ( 2023, 7, 6 ) ;
#86 = VECTOR ( 'NONE', #39, 39.37007874015748143 ) ;
#87 = ORIENTED_EDGE ( 'NONE', *, *, #6, .F. ) ;
#88 = CARTESIAN_POINT ( 'NONE',  ( 12.00000000000000178, 0.000000000000000000, 0.000000000000000000 ) ) ;
#89 = CARTESIAN_POINT ( 'NONE',  ( -12.00000000000000178, 0.000000000000000000, 0.000000000000000000 ) ) ;
#90 = EDGE_LOOP ( 'NONE', ( #114, #259, #216, #87 ) ) ;
#91 = ORIENTED_EDGE ( 'NONE', *, *, #271, .T. ) ;
#92 = EDGE_CURVE ( 'NONE', #197, #93, #127, .T. ) ;
#93 = VERTEX_POINT ( 'NONE', #150 ) ;
#94 = DIRECTION ( 'NONE',  ( 0.000000000000000000, 0.000000000000000000, 1.000000000000000000 ) ) ;
#95 = CARTESIAN_POINT ( 'NONE',  ( 12.00000000000000178, 0.000000000000000000, 0.000000000000000000 ) ) ;
#96 = CARTESIAN_POINT ( 'NONE',  ( 0.000000000000000000, 0.000000000000000000, 0.000000000000000000 ) ) ;
#97 = DIRECTION ( 'NONE',  ( 0.000000000000000000, 0.000000000000000000, -1.000000000000000000 ) ) ;
#98 = PERSON_AND_ORGANIZATION ( #2, #171 ) ;
#99 = CARTESIAN_POINT ( 'NONE',  ( -12.00000000000000178, 0.000000000000000000, -0.3024999999999784528 ) ) ;
#100 = LOCAL_TIME ( 8, 30, 21.00000000000000000, #63 ) ;
#101 = ADVANCED_BREP_SHAPE_REPRESENTATION ( 'NIL10SS-024.000-SL', ( #221, #102 ), #215 ) ;
#102 = AXIS2_PLACEMENT_3D ( 'NONE', #96, #128, #183 ) ;
#103 = PERSON_AND_ORGANIZATION ( #2, #171 ) ;
#104 = AXIS2_PLACEMENT_3D ( 'NONE', #201, #59, #121 ) ;
#105 = DATE_TIME_ROLE ( 'creation_date' ) ;
#106 = PERSON_AND_ORGANIZATION ( #2, #171 ) ;
#107 = APPROVAL_ROLE ( '' ) ;
#108 = APPROVAL ( #191, 'UNSPECIFIED' ) ;
#109 = EDGE_CURVE ( 'NONE', #275, #93, #136, .T. ) ;
#110 = APPROVAL_PERSON_ORGANIZATION ( #229, #213, #60 ) ;
#111 = ORIENTED_EDGE ( 'NONE', *, *, #260, .F. ) ;
#112 = EDGE_LOOP ( 'NONE', ( #47, #264, #138, #172 ) ) ;
#113 = PLANE ( 'NONE',  #233 ) ;
#114 = ORIENTED_EDGE ( 'NONE', *, *, #109, .F. ) ;
#115 = CARTESIAN_POINT ( 'NONE',  ( 11.99000000000001265, 0.000000000000000000, 0.000000000000000000 ) ) ;
#116 = CARTESIAN_POINT ( 'NONE',  ( -11.98999999999998067, 0.000000000000000000, 0.000000000000000000 ) ) ;
#117 = EDGE_LOOP ( 'NONE', ( #73, #26 ) ) ;
#118 = FACE_OUTER_BOUND ( 'NONE', #54, .T. ) ;
#119 = FACE_OUTER_BOUND ( 'NONE', #235, .T. ) ;
#120 =( NAMED_UNIT ( * ) SI_UNIT ( $, .STERADIAN. ) SOLID_ANGLE_UNIT ( ) );
#121 = DIRECTION ( 'NONE',  ( 0.000000000000000000, 0.000000000000000000, 1.000000000000000000 ) ) ;
#122 = COORDINATED_UNIVERSAL_TIME_OFFSET ( 5, 0, .BEHIND. ) ;
#123 = EDGE_CURVE ( 'NONE', #33, #130, #7, .T. ) ;
#124 = LINE ( 'NONE', #205, #164 ) ;
#125 = CALENDAR_DATE ( 2023, 7, 6 ) ;
#126 = AXIS2_PLACEMENT_3D ( 'NONE', #115, #276, #263 ) ;
#127 = CIRCLE ( 'NONE', #126, 0.3125000000000000000 ) ;
#128 = DIRECTION ( 'NONE',  ( 0.000000000000000000, 0.000000000000000000, 1.000000000000000000 ) ) ;
#129 = SHAPE_DEFINITION_REPRESENTATION ( #217, #101 ) ;
#130 = VERTEX_POINT ( 'NONE', #75 ) ;
#131 = CARTESIAN_POINT ( 'NONE',  ( -11.98999999999998067, 0.000000000000000000, 0.000000000000000000 ) ) ;
#132 = CYLINDRICAL_SURFACE ( 'NONE', #64, 0.3125000000000000000 ) ;
#133 = CIRCLE ( 'NONE', #187, 0.3125000000000000000 ) ;
#134 = EDGE_LOOP ( 'NONE', ( #277, #24, #152, #5 ) ) ;
#135 = DIRECTION ( 'NONE',  ( 0.000000000000000000, 0.000000000000000000, -1.000000000000000000 ) ) ;
#136 = LINE ( 'NONE', #199, #155 ) ;
#137 = CYLINDRICAL_SURFACE ( 'NONE', #139, 0.3125000000000000000 ) ;
#138 = ORIENTED_EDGE ( 'NONE', *, *, #92, .F. ) ;
#139 = AXIS2_PLACEMENT_3D ( 'NONE', #71, #193, #69 ) ;
#140 = PERSON_AND_ORGANIZATION ( #2, #171 ) ;
#141 = LINE ( 'NONE', #230, #86 ) ;
#142 = CC_DESIGN_PERSON_AND_ORGANIZATION_ASSIGNMENT ( #106, #249, ( #157 ) ) ;
#143 = CC_DESIGN_APPROVAL ( #213, ( #250 ) ) ;
#144 = CALENDAR_DATE ( 2023, 7, 6 ) ;
#145 = COORDINATED_UNIVERSAL_TIME_OFFSET ( 5, 0, .BEHIND. ) ;
#146 = EDGE_CURVE ( 'NONE', #197, #53, #218, .T. ) ;
#147 = AXIS2_PLACEMENT_3D ( 'NONE', #200, #154, #151 ) ;
#148 = APPROVAL_DATE_TIME ( #18, #270 ) ;
#149 = ORIENTED_EDGE ( 'NONE', *, *, #40, .T. ) ;
#150 = CARTESIAN_POINT ( 'NONE',  ( 11.99000000000001265, 3.827021247335477694E-17, -0.3125000000000000000 ) ) ;
#151 = DIRECTION ( 'NONE',  ( 0.000000000000000000, 0.000000000000000000, -1.000000000000000000 ) ) ;
#152 = ORIENTED_EDGE ( 'NONE', *, *, #245, .T. ) ;
#153 = EDGE_CURVE ( 'NONE', #275, #178, #168, .T. ) ;
#154 = DIRECTION ( 'NONE',  ( -1.000000000000000000, -0.000000000000000000, -0.000000000000000000 ) ) ;
#155 = VECTOR ( 'NONE', #227, 39.37007874015748854 ) ;
#156 = ORIENTED_EDGE ( 'NONE', *, *, #231, .F. ) ;
#157 = PRODUCT_DEFINITION_FORMATION_WITH_SPECIFIED_SOURCE ( 'ANY', '', #234, .NOT_KNOWN. ) ;
#158 = CARTESIAN_POINT ( 'NONE',  ( 11.99000000000001265, 0.000000000000000000, 0.3125000000000000000 ) ) ;
#159 = EDGE_LOOP ( 'NONE', ( #149, #174 ) ) ;
#160 = CARTESIAN_POINT ( 'NONE',  ( -11.98999999999998067, 0.000000000000000000, 0.000000000000000000 ) ) ;
#161 = VECTOR ( 'NONE', #224, 39.37007874015748854 ) ;
#162 = CARTESIAN_POINT ( 'NONE',  ( -11.98999999999998067, 0.000000000000000000, 0.3125000000000000000 ) ) ;
#163 = APPROVAL_ROLE ( '' ) ;
#164 = VECTOR ( 'NONE', #225, 39.37007874015748854 ) ;
#165 = ADVANCED_FACE ( 'NONE', ( #52 ), #113, .F. ) ;
#166 = LENGTH_MEASURE_WITH_UNIT ( LENGTH_MEASURE( 0.02539999999999999897 ), #222 );
#167 = PERSON_AND_ORGANIZATION ( #2, #171 ) ;
#168 = CIRCLE ( 'NONE', #195, 0.3025000000000134248 ) ;
#169 = PERSON_AND_ORGANIZATION ( #2, #171 ) ;
#170 = CIRCLE ( 'NONE', #207, 0.3024999999999784528 ) ;
#171 = ORGANIZATION ( 'UNSPECIFIED', 'UNSPECIFIED', '' ) ;
#172 = ORIENTED_EDGE ( 'NONE', *, *, #72, .F. ) ;
#173 = DIRECTION ( 'NONE',  ( 0.000000000000000000, 0.000000000000000000, -1.000000000000000000 ) ) ;
#174 = ORIENTED_EDGE ( 'NONE', *, *, #153, .T. ) ;
#175 = ORIENTED_EDGE ( 'NONE', *, *, #123, .F. ) ;
#176 = EDGE_CURVE ( 'NONE', #53, #130, #133, .T. ) ;
#177 = CARTESIAN_POINT ( 'NONE',  ( -11.98999999999998067, 0.000000000000000000, -0.3125000000000000000 ) ) ;
#178 = VERTEX_POINT ( 'NONE', #55 ) ;
#179 = DIRECTION ( 'NONE',  ( 1.000000000000000000, -0.000000000000000000, -0.000000000000000000 ) ) ;
#180 = ADVANCED_FACE ( 'NONE', ( #118 ), #137, .T. ) ;
#181 = FACE_OUTER_BOUND ( 'NONE', #194, .T. ) ;
#182 = AXIS2_PLACEMENT_3D ( 'NONE', #160, #268, #243 ) ;
#183 = DIRECTION ( 'NONE',  ( 1.000000000000000000, 0.000000000000000000, 0.000000000000000000 ) ) ;
#184 = CC_DESIGN_DATE_AND_TIME_ASSIGNMENT ( #78, #105, ( #250 ) ) ;
#185 = CARTESIAN_POINT ( 'NONE',  ( 12.00000000000000178, 0.000000000000000000, 0.000000000000000000 ) ) ;
#186 = DATE_AND_TIME ( #144, #100 ) ;
#187 = AXIS2_PLACEMENT_3D ( 'NONE', #131, #236, #27 ) ;
#188 = FACE_OUTER_BOUND ( 'NONE', #159, .T. ) ;
#189 = CC_DESIGN_APPROVAL ( #108, ( #157 ) ) ;
#190 = CONICAL_SURFACE ( 'NONE', #104, 0.3025000000000134248, 0.7853981633973697862 ) ;
#191 = APPROVAL_STATUS ( 'not_yet_approved' ) ;
#192 = PERSON_AND_ORGANIZATION_ROLE ( 'design_supplier' ) ;
#193 = DIRECTION ( 'NONE',  ( -1.000000000000000000, -0.000000000000000000, -0.000000000000000000 ) ) ;
#194 = EDGE_LOOP ( 'NONE', ( #156, #91, #241, #175 ) ) ;
#195 = AXIS2_PLACEMENT_3D ( 'NONE', #196, #50, #36 ) ;
#196 = CARTESIAN_POINT ( 'NONE',  ( 12.00000000000000178, 0.000000000000000000, 0.000000000000000000 ) ) ;
#197 = VERTEX_POINT ( 'NONE', #158 ) ;
#198 = DIRECTION ( 'NONE',  ( 0.7071067811865257013, 8.659560562355200331E-17, 0.7071067811865692221 ) ) ;
#199 = CARTESIAN_POINT ( 'NONE',  ( 12.00000000000000178, 3.704556567420908428E-17, -0.3025000000000134248 ) ) ;
#200 = CARTESIAN_POINT ( 'NONE',  ( -12.00000000000000178, 0.000000000000000000, 0.000000000000000000 ) ) ;
#201 = CARTESIAN_POINT ( 'NONE',  ( 12.00000000000000178, 0.000000000000000000, 0.000000000000000000 ) ) ;
#202 = SECURITY_CLASSIFICATION_LEVEL ( 'unclassified' ) ;
#203 = DIRECTION ( 'NONE',  ( 0.000000000000000000, 0.000000000000000000, -1.000000000000000000 ) ) ;
#204 = PERSON_AND_ORGANIZATION_ROLE ( 'creator' ) ;
#205 = CARTESIAN_POINT ( 'NONE',  ( 12.00000000000000178, 0.000000000000000000, 0.3025000000000134248 ) ) ;
#206 = APPROVAL_DATE_TIME ( #272, #108 ) ;
#207 = AXIS2_PLACEMENT_3D ( 'NONE', #265, #30, #173 ) ;
#208 = LOCAL_TIME ( 8, 30, 21.00000000000000000, #14 ) ;
#209 = CALENDAR_DATE ( 2023, 7, 6 ) ;
#210 = AXIS2_PLACEMENT_3D ( 'NONE', #95, #244, #37 ) ;
#211 = APPLICATION_PROTOCOL_DEFINITION ( 'international standard', 'config_control_design', 1994, #1 ) ;
#212 = COORDINATED_UNIVERSAL_TIME_OFFSET ( 5, 0, .BEHIND. ) ;
#213 = APPROVAL ( #17, 'UNSPECIFIED' ) ;
#214 = SECURITY_CLASSIFICATION ( '', '', #202 ) ;
#215 =( GEOMETRIC_REPRESENTATION_CONTEXT ( 3 ) GLOBAL_UNCERTAINTY_ASSIGNED_CONTEXT ( ( #83 ) ) GLOBAL_UNIT_ASSIGNED_CONTEXT ( ( #273, #58, #120 ) ) REPRESENTATION_CONTEXT ( 'NONE', 'WORKASPACE' ) );
#216 = ORIENTED_EDGE ( 'NONE', *, *, #72, .T. ) ;
#217 = PRODUCT_DEFINITION_SHAPE ( 'NONE', 'NONE',  #250 ) ;
#218 = LINE ( 'NONE', #32, #253 ) ;
#219 = DIRECTION ( 'NONE',  ( -1.000000000000000000, -0.000000000000000000, -0.000000000000000000 ) ) ;
#220 = ORIENTED_EDGE ( 'NONE', *, *, #146, .T. ) ;
#221 = MANIFOLD_SOLID_BREP ( 'Chamfer1', #43 ) ;
#222 =( LENGTH_UNIT ( ) NAMED_UNIT ( * ) SI_UNIT ( $, .METRE. ) );
#223 = ORIENTED_EDGE ( 'NONE', *, *, #6, .T. ) ;
#224 = DIRECTION ( 'NONE',  ( 0.7071067811865257013, 0.000000000000000000, -0.7071067811865692221 ) ) ;
#225 = DIRECTION ( 'NONE',  ( -0.7071067811866029729, 0.000000000000000000, 0.7071067811864919506 ) ) ;
#226 = CC_DESIGN_PERSON_AND_ORGANIZATION_ASSIGNMENT ( #103, #192, ( #157 ) ) ;
#227 = DIRECTION ( 'NONE',  ( -0.7071067811866029729, 8.659560562354252466E-17, -0.7071067811864919506 ) ) ;
#228 = DIRECTION ( 'NONE',  ( 0.000000000000000000, 0.000000000000000000, -1.000000000000000000 ) ) ;
#229 = PERSON_AND_ORGANIZATION ( #2, #171 ) ;
#230 = CARTESIAN_POINT ( 'NONE',  ( 12.00000000000000178, 3.827021247335477694E-17, -0.3125000000000000000 ) ) ;
#231 = EDGE_CURVE ( 'NONE', #262, #33, #46, .T. ) ;
#232 = CALENDAR_DATE ( 2023, 7, 6 ) ;
#233 = AXIS2_PLACEMENT_3D ( 'NONE', #89, #261, #258 ) ;
#234 = PRODUCT ( 'NIL10SS-024.000-SL', 'NIL10SS-024.000-SL', '', ( #61 ) ) ;
#235 = EDGE_LOOP ( 'NONE', ( #28, #111, #239, #51 ) ) ;
#236 = DIRECTION ( 'NONE',  ( 1.000000000000000000, -0.000000000000000000, -0.000000000000000000 ) ) ;
#237 = LINE ( 'NONE', #67, #21 ) ;
#238 = ADVANCED_FACE ( 'NONE', ( #9 ), #132, .T. ) ;
#239 = ORIENTED_EDGE ( 'NONE', *, *, #123, .T. ) ;
#240 = DIRECTION ( 'NONE',  ( 1.000000000000000000, -0.000000000000000000, -0.000000000000000000 ) ) ;
#241 = ORIENTED_EDGE ( 'NONE', *, *, #245, .F. ) ;
#242 = DIRECTION ( 'NONE',  ( 0.000000000000000000, 0.000000000000000000, -1.000000000000000000 ) ) ;
#243 = DIRECTION ( 'NONE',  ( 0.000000000000000000, 0.000000000000000000, -1.000000000000000000 ) ) ;
#244 = DIRECTION ( 'NONE',  ( -1.000000000000000000, 0.000000000000000000, 0.000000000000000000 ) ) ;
#245 = EDGE_CURVE ( 'NONE', #130, #53, #41, .T. ) ;
#246 = AXIS2_PLACEMENT_3D ( 'NONE', #76, #13, #203 ) ;
#247 = CC_DESIGN_DATE_AND_TIME_ASSIGNMENT ( #186, #81, ( #214 ) ) ;
#248 = PERSON_AND_ORGANIZATION_ROLE ( 'classification_officer' ) ;
#249 = PERSON_AND_ORGANIZATION_ROLE ( 'creator' ) ;
#250 = PRODUCT_DEFINITION ( 'UNKNOWN', '', #157, #66 ) ;
#251 = APPLICATION_CONTEXT ( 'configuration controlled 3d designs of mechanical parts and assemblies' ) ;
#252 = CC_DESIGN_APPROVAL ( #270, ( #214 ) ) ;
#253 = VECTOR ( 'NONE', #48, 39.37007874015748143 ) ;
#254 = CC_DESIGN_SECURITY_CLASSIFICATION ( #214, ( #157 ) ) ;
#255 = CONICAL_SURFACE ( 'NONE', #210, 0.3025000000000134248, 0.7853981633973697862 ) ;
#256 = CARTESIAN_POINT ( 'NONE',  ( -12.00000000000000178, 3.765788907377979514E-17, 0.3024999999999784528 ) ) ;
#257 = ORIENTED_EDGE ( 'NONE', *, *, #68, .F. ) ;
#258 = DIRECTION ( 'NONE',  ( 0.000000000000000000, 0.000000000000000000, -1.000000000000000000 ) ) ;
#259 = ORIENTED_EDGE ( 'NONE', *, *, #40, .F. ) ;
#260 = EDGE_CURVE ( 'NONE', #33, #262, #170, .T. ) ;
#261 = DIRECTION ( 'NONE',  ( 1.000000000000000000, 0.000000000000000000, 0.000000000000000000 ) ) ;
#262 = VERTEX_POINT ( 'NONE', #256 ) ;
#263 = DIRECTION ( 'NONE',  ( 0.000000000000000000, 0.000000000000000000, -1.000000000000000000 ) ) ;
#264 = ORIENTED_EDGE ( 'NONE', *, *, #109, .T. ) ;
#265 = CARTESIAN_POINT ( 'NONE',  ( -12.00000000000000178, 0.000000000000000000, 0.000000000000000000 ) ) ;
#266 = CONICAL_SURFACE ( 'NONE', #182, 0.3125000000000000000, 0.7853981633974790322 ) ;
#267 = FACE_OUTER_BOUND ( 'NONE', #112, .T. ) ;
#268 = DIRECTION ( 'NONE',  ( 1.000000000000000000, -0.000000000000000000, -0.000000000000000000 ) ) ;
#269 = PERSON_AND_ORGANIZATION_ROLE ( 'design_owner' ) ;
#270 = APPROVAL ( #45, 'UNSPECIFIED' ) ;
#271 = EDGE_CURVE ( 'NONE', #262, #53, #237, .T. ) ;
#272 = DATE_AND_TIME ( #125, #44 ) ;
#273 =( CONVERSION_BASED_UNIT ( 'INCH', #166 ) LENGTH_UNIT ( ) NAMED_UNIT ( #19 ) );
#274 = AXIS2_PLACEMENT_3D ( 'NONE', #56, #34, #97 ) ;
#275 = VERTEX_POINT ( 'NONE', #4 ) ;
#276 = DIRECTION ( 'NONE',  ( -1.000000000000000000, 0.000000000000000000, 0.000000000000000000 ) ) ;
#277 = ORIENTED_EDGE ( 'NONE', *, *, #92, .T. ) ;
#278 = AXIS2_PLACEMENT_3D ( 'NONE', #70, #240, #242 ) ;
ENDSEC;
END-ISO-10303-21;
