ISO-10303-21;
HEADER;
FILE_DESCRIPTION (( 'STEP AP203' ),
    '1' );
FILE_NAME ('NIL10SS-012.000-SL.step',
    '2023-06-07T12:30:16',
    ( '' ),
    ( '' ),
    'SwSTEP 2.0',
    'SolidWorks 2021',
    '' );
FILE_SCHEMA (( 'CONFIG_CONTROL_DESIGN' ));
ENDSEC;

DATA;
#1 = VECTOR ( 'NONE', #252, 39.37007874015748143 ) ;
#2 = LOCAL_TIME ( 8, 30, 16.00000000000000000, #220 ) ;
#3 = PERSON_AND_ORGANIZATION_ROLE ( 'design_owner' ) ;
#4 = COORDINATED_UNIVERSAL_TIME_OFFSET ( 5, 0, .BEHIND. ) ;
#5 = CARTESIAN_POINT ( 'NONE',  ( -5.989999999999986002, 0.000000000000000000, 0.000000000000000000 ) ) ;
#6 = EDGE_CURVE ( 'NONE', #247, #164, #207, .T. ) ;
#7 = EDGE_CURVE ( 'NONE', #79, #177, #82, .T. ) ;
#8 = AXIS2_PLACEMENT_3D ( 'NONE', #273, #46, #249 ) ;
#9 = CC_DESIGN_APPROVAL ( #232, ( #21 ) ) ;
#10 = PERSON_AND_ORGANIZATION ( #24, #63 ) ;
#11 = COORDINATED_UNIVERSAL_TIME_OFFSET ( 5, 0, .BEHIND. ) ;
#12 = PERSON_AND_ORGANIZATION ( #24, #63 ) ;
#13 = ORIENTED_EDGE ( 'NONE', *, *, #78, .T. ) ;
#14 = ADVANCED_FACE ( 'NONE', ( #253 ), #160, .T. ) ;
#15 = AXIS2_PLACEMENT_3D ( 'NONE', #251, #66, #105 ) ;
#16 = ORIENTED_EDGE ( 'NONE', *, *, #254, .T. ) ;
#17 = ORIENTED_EDGE ( 'NONE', *, *, #237, .F. ) ;
#18 = VERTEX_POINT ( 'NONE', #206 ) ;
#19 = AXIS2_PLACEMENT_3D ( 'NONE', #44, #231, #274 ) ;
#20 = DIRECTION ( 'NONE',  ( -1.000000000000000000, 0.000000000000000000, 0.000000000000000000 ) ) ;
#21 = PRODUCT_DEFINITION_FORMATION_WITH_SPECIFIED_SOURCE ( 'ANY', '', #175, .NOT_KNOWN. ) ;
#22 = DIRECTION ( 'NONE',  ( 1.000000000000000000, 0.000000000000000000, 0.000000000000000000 ) ) ;
#23 = DIRECTION ( 'NONE',  ( 0.000000000000000000, 0.000000000000000000, -1.000000000000000000 ) ) ;
#24 = PERSON ( 'UNSPECIFIED', 'UNSPECIFIED', 'UNSPECIFIED', ('UNSPECIFIED'), ('UNSPECIFIED'), ('UNSPECIFIED') ) ;
#25 = PLANE ( 'NONE',  #126 ) ;
#26 = LENGTH_MEASURE_WITH_UNIT ( LENGTH_MEASURE( 0.02539999999999999897 ), #262 );
#27 = ADVANCED_BREP_SHAPE_REPRESENTATION ( 'NIL10SS-012.000-SL', ( #101, #192 ), #117 ) ;
#28 = APPROVAL ( #243, 'UNSPECIFIED' ) ;
#29 = CARTESIAN_POINT ( 'NONE',  ( 0.000000000000000000, 0.000000000000000000, 0.000000000000000000 ) ) ;
#30 = APPROVAL_PERSON_ORGANIZATION ( #224, #232, #120 ) ;
#31 = DIRECTION ( 'NONE',  ( 1.000000000000000000, 0.000000000000000000, 0.000000000000000000 ) ) ;
#32 = PERSON_AND_ORGANIZATION ( #24, #63 ) ;
#33 = CALENDAR_DATE ( 2023, 7, 6 ) ;
#34 = EDGE_LOOP ( 'NONE', ( #205, #266, #123, #200 ) ) ;
#35 = APPROVAL_DATE_TIME ( #93, #232 ) ;
#36 = EDGE_LOOP ( 'NONE', ( #40, #202, #223, #102 ) ) ;
#37 = ORIENTED_EDGE ( 'NONE', *, *, #254, .F. ) ;
#38 = VECTOR ( 'NONE', #260, 39.37007874015748143 ) ;
#39 = ORIENTED_EDGE ( 'NONE', *, *, #156, .F. ) ;
#40 = ORIENTED_EDGE ( 'NONE', *, *, #173, .T. ) ;
#41 = CARTESIAN_POINT ( 'NONE',  ( -5.989999999999986002, 0.000000000000000000, 0.3125000000000000000 ) ) ;
#42 = DIRECTION ( 'NONE',  ( 1.000000000000000000, 0.000000000000000000, 0.000000000000000000 ) ) ;
#43 = EDGE_CURVE ( 'NONE', #18, #181, #130, .T. ) ;
#44 = CARTESIAN_POINT ( 'NONE',  ( 5.990000000000002878, 0.000000000000000000, 0.000000000000000000 ) ) ;
#45 = CARTESIAN_POINT ( 'NONE',  ( 5.990000000000002878, 0.000000000000000000, 0.3125000000000000000 ) ) ;
#46 = DIRECTION ( 'NONE',  ( 1.000000000000000000, 0.000000000000000000, 0.000000000000000000 ) ) ;
#47 = CIRCLE ( 'NONE', #213, 0.3125000000000000000 ) ;
#48 = LOCAL_TIME ( 8, 30, 16.00000000000000000, #197 ) ;
#49 = DIRECTION ( 'NONE',  ( 0.000000000000000000, 0.000000000000000000, 1.000000000000000000 ) ) ;
#50 = CYLINDRICAL_SURFACE ( 'NONE', #235, 0.3125000000000000000 ) ;
#51 = AXIS2_PLACEMENT_3D ( 'NONE', #5, #238, #88 ) ;
#52 = CC_DESIGN_PERSON_AND_ORGANIZATION_ASSIGNMENT ( #59, #56, ( #268 ) ) ;
#53 = CALENDAR_DATE ( 2023, 7, 6 ) ;
#54 = DIRECTION ( 'NONE',  ( -1.000000000000000000, 0.000000000000000000, 0.000000000000000000 ) ) ;
#55 = ADVANCED_FACE ( 'NONE', ( #146 ), #25, .F. ) ;
#56 = PERSON_AND_ORGANIZATION_ROLE ( 'creator' ) ;
#57 = VECTOR ( 'NONE', #278, 39.37007874015748143 ) ;
#58 = SECURITY_CLASSIFICATION ( '', '', #158 ) ;
#59 = PERSON_AND_ORGANIZATION ( #24, #63 ) ;
#60 = ORIENTED_EDGE ( 'NONE', *, *, #121, .T. ) ;
#61 = EDGE_CURVE ( 'NONE', #64, #181, #229, .T. ) ;
#62 = ORIENTED_EDGE ( 'NONE', *, *, #6, .F. ) ;
#63 = ORGANIZATION ( 'UNSPECIFIED', 'UNSPECIFIED', '' ) ;
#64 = VERTEX_POINT ( 'NONE', #41 ) ;
#65 = DIRECTION ( 'NONE',  ( 0.000000000000000000, 0.000000000000000000, -1.000000000000000000 ) ) ;
#66 = DIRECTION ( 'NONE',  ( -1.000000000000000000, 0.000000000000000000, 0.000000000000000000 ) ) ;
#67 = AXIS2_PLACEMENT_3D ( 'NONE', #276, #228, #270 ) ;
#68 = DIRECTION ( 'NONE',  ( -1.000000000000000000, -0.000000000000000000, -0.000000000000000000 ) ) ;
#69 = DIRECTION ( 'NONE',  ( 1.000000000000000000, 0.000000000000000000, 0.000000000000000000 ) ) ;
#70 = PRODUCT_DEFINITION_SHAPE ( 'NONE', 'NONE',  #268 ) ;
#71 = CARTESIAN_POINT ( 'NONE',  ( 6.000000000000000888, 0.000000000000000000, 0.000000000000000000 ) ) ;
#72 = APPROVAL ( #73, 'UNSPECIFIED' ) ;
#73 = APPROVAL_STATUS ( 'not_yet_approved' ) ;
#74 = CARTESIAN_POINT ( 'NONE',  ( -5.989999999999986002, 3.827021247335478926E-17, 0.3125000000000000000 ) ) ;
#75 = PERSON_AND_ORGANIZATION_ROLE ( 'design_supplier' ) ;
#76 = ORIENTED_EDGE ( 'NONE', *, *, #78, .F. ) ;
#77 = DATE_AND_TIME ( #178, #208 ) ;
#78 = EDGE_CURVE ( 'NONE', #247, #179, #86, .T. ) ;
#79 = VERTEX_POINT ( 'NONE', #87 ) ;
#80 = ORIENTED_EDGE ( 'NONE', *, *, #104, .F. ) ;
#81 = ADVANCED_FACE ( 'NONE', ( #106 ), #209, .T. ) ;
#82 = CIRCLE ( 'NONE', #196, 0.3024999999999872236 ) ;
#83 = DIRECTION ( 'NONE',  ( 0.000000000000000000, 0.000000000000000000, -1.000000000000000000 ) ) ;
#84 = FACE_OUTER_BOUND ( 'NONE', #248, .T. ) ;
#85 = DIRECTION ( 'NONE',  ( 1.000000000000000000, -0.000000000000000000, -0.000000000000000000 ) ) ;
#86 = LINE ( 'NONE', #255, #136 ) ;
#87 = CARTESIAN_POINT ( 'NONE',  ( -6.000000000000000888, 3.765788907378032516E-17, 0.3024999999999872236 ) ) ;
#88 = DIRECTION ( 'NONE',  ( 0.000000000000000000, 0.000000000000000000, -1.000000000000000000 ) ) ;
#89 = CARTESIAN_POINT ( 'NONE',  ( 6.000000000000000888, 0.000000000000000000, 0.000000000000000000 ) ) ;
#90 = EDGE_CURVE ( 'NONE', #18, #179, #165, .T. ) ;
#91 = DIRECTION ( 'NONE',  ( -1.000000000000000000, -0.000000000000000000, -0.000000000000000000 ) ) ;
#92 = APPROVAL_PERSON_ORGANIZATION ( #194, #72, #155 ) ;
#93 = DATE_AND_TIME ( #265, #48 ) ;
#94 = CC_DESIGN_PERSON_AND_ORGANIZATION_ASSIGNMENT ( #10, #221, ( #58 ) ) ;
#95 = PERSON_AND_ORGANIZATION ( #24, #63 ) ;
#96 = DATE_AND_TIME ( #33, #131 ) ;
#97 = ORIENTED_EDGE ( 'NONE', *, *, #7, .T. ) ;
#98 = AXIS2_PLACEMENT_3D ( 'NONE', #170, #22, #272 ) ;
#99 = ORIENTED_EDGE ( 'NONE', *, *, #237, .T. ) ;
#100 = ORIENTED_EDGE ( 'NONE', *, *, #250, .T. ) ;
#101 = MANIFOLD_SOLID_BREP ( 'Chamfer1', #212 ) ;
#102 = ORIENTED_EDGE ( 'NONE', *, *, #188, .F. ) ;
#103 = DIRECTION ( 'NONE',  ( 0.000000000000000000, 0.000000000000000000, -1.000000000000000000 ) ) ;
#104 = EDGE_CURVE ( 'NONE', #164, #247, #112, .T. ) ;
#105 = DIRECTION ( 'NONE',  ( 0.000000000000000000, 0.000000000000000000, 1.000000000000000000 ) ) ;
#106 = FACE_OUTER_BOUND ( 'NONE', #34, .T. ) ;
#107 = FACE_OUTER_BOUND ( 'NONE', #226, .T. ) ;
#108 = DIMENSIONAL_EXPONENTS ( 1.000000000000000000, 0.000000000000000000, 0.000000000000000000, 0.000000000000000000, 0.000000000000000000, 0.000000000000000000, 0.000000000000000000 ) ;
#109 = CC_DESIGN_DATE_AND_TIME_ASSIGNMENT ( #141, #176, ( #268 ) ) ;
#110 = ADVANCED_FACE ( 'NONE', ( #128 ), #185, .T. ) ;
#111 = MECHANICAL_CONTEXT ( 'NONE', #119, 'mechanical' ) ;
#112 = CIRCLE ( 'NONE', #217, 0.3025000000000014344 ) ;
#113 =( NAMED_UNIT ( * ) SI_UNIT ( $, .STERADIAN. ) SOLID_ANGLE_UNIT ( ) );
#114 = CARTESIAN_POINT ( 'NONE',  ( 6.000000000000000888, 0.000000000000000000, 0.3025000000000014344 ) ) ;
#115 = APPROVAL_DATE_TIME ( #159, #72 ) ;
#116 = CONICAL_SURFACE ( 'NONE', #15, 0.3025000000000014344, 0.7853981633974790322 ) ;
#117 =( GEOMETRIC_REPRESENTATION_CONTEXT ( 3 ) GLOBAL_UNCERTAINTY_ASSIGNED_CONTEXT ( ( #258 ) ) GLOBAL_UNIT_ASSIGNED_CONTEXT ( ( #256, #241, #113 ) ) REPRESENTATION_CONTEXT ( 'NONE', 'WORKASPACE' ) );
#118 = COORDINATED_UNIVERSAL_TIME_OFFSET ( 5, 0, .BEHIND. ) ;
#119 = APPLICATION_CONTEXT ( 'configuration controlled 3d designs of mechanical parts and assemblies' ) ;
#120 = APPROVAL_ROLE ( '' ) ;
#121 = EDGE_CURVE ( 'NONE', #177, #79, #239, .T. ) ;
#122 = ORIENTED_EDGE ( 'NONE', *, *, #90, .F. ) ;
#123 = ORIENTED_EDGE ( 'NONE', *, *, #188, .T. ) ;
#124 = CARTESIAN_POINT ( 'NONE',  ( -6.000000000000000888, 0.000000000000000000, 0.000000000000000000 ) ) ;
#125 = CC_DESIGN_PERSON_AND_ORGANIZATION_ASSIGNMENT ( #193, #3, ( #175 ) ) ;
#126 = AXIS2_PLACEMENT_3D ( 'NONE', #227, #69, #148 ) ;
#127 = CARTESIAN_POINT ( 'NONE',  ( -5.989999999999986002, 0.000000000000000000, 0.000000000000000000 ) ) ;
#128 = FACE_OUTER_BOUND ( 'NONE', #161, .T. ) ;
#129 = CARTESIAN_POINT ( 'NONE',  ( -5.989999999999986002, 3.827021247335477694E-17, -0.3125000000000000000 ) ) ;
#130 = LINE ( 'NONE', #183, #1 ) ;
#131 = LOCAL_TIME ( 8, 30, 16.00000000000000000, #118 ) ;
#132 = DESIGN_CONTEXT ( 'detailed design', #203, 'design' ) ;
#133 = LINE ( 'NONE', #277, #145 ) ;
#134 = LINE ( 'NONE', #172, #275 ) ;
#135 = FACE_OUTER_BOUND ( 'NONE', #36, .T. ) ;
#136 = VECTOR ( 'NONE', #166, 39.37007874015748854 ) ;
#137 = DIRECTION ( 'NONE',  ( 0.000000000000000000, 0.000000000000000000, 1.000000000000000000 ) ) ;
#138 = LINE ( 'NONE', #242, #57 ) ;
#139 = APPROVAL_STATUS ( 'not_yet_approved' ) ;
#140 = ORIENTED_EDGE ( 'NONE', *, *, #104, .T. ) ;
#141 = DATE_AND_TIME ( #201, #2 ) ;
#142 = ORIENTED_EDGE ( 'NONE', *, *, #7, .F. ) ;
#143 = ADVANCED_FACE ( 'NONE', ( #84 ), #116, .T. ) ;
#144 = ORIENTED_EDGE ( 'NONE', *, *, #6, .T. ) ;
#145 = VECTOR ( 'NONE', #157, 39.37007874015748854 ) ;
#146 = FACE_OUTER_BOUND ( 'NONE', #264, .T. ) ;
#147 = CC_DESIGN_PERSON_AND_ORGANIZATION_ASSIGNMENT ( #12, #75, ( #21 ) ) ;
#148 = DIRECTION ( 'NONE',  ( 0.000000000000000000, 0.000000000000000000, -1.000000000000000000 ) ) ;
#149 = CARTESIAN_POINT ( 'NONE',  ( 6.000000000000000888, 3.765788907378120030E-17, -0.3025000000000014344 ) ) ;
#150 = CARTESIAN_POINT ( 'NONE',  ( -5.989999999999986002, 0.000000000000000000, 0.000000000000000000 ) ) ;
#151 = CARTESIAN_POINT ( 'NONE',  ( -6.000000000000000888, 0.000000000000000000, 0.000000000000000000 ) ) ;
#152 = AXIS2_PLACEMENT_3D ( 'NONE', #151, #68, #233 ) ;
#153 = CC_DESIGN_APPROVAL ( #72, ( #268 ) ) ;
#154 = PRODUCT_RELATED_PRODUCT_CATEGORY ( 'detail', '', ( #175 ) ) ;
#155 = APPROVAL_ROLE ( '' ) ;
#156 = EDGE_CURVE ( 'NONE', #181, #64, #47, .T. ) ;
#157 = DIRECTION ( 'NONE',  ( -0.7071067811865257013, 8.659560562355197866E-17, -0.7071067811865691111 ) ) ;
#158 = SECURITY_CLASSIFICATION_LEVEL ( 'unclassified' ) ;
#159 = DATE_AND_TIME ( #53, #222 ) ;
#160 = CONICAL_SURFACE ( 'NONE', #261, 0.3125000000000000000, 0.7853981633973696752 ) ;
#161 = EDGE_LOOP ( 'NONE', ( #144, #140 ) ) ;
#162 = CONICAL_SURFACE ( 'NONE', #204, 0.3025000000000014344, 0.7853981633974790322 ) ;
#163 = EDGE_LOOP ( 'NONE', ( #17, #246, #16, #225 ) ) ;
#164 = VERTEX_POINT ( 'NONE', #149 ) ;
#165 = CIRCLE ( 'NONE', #234, 0.3125000000000000000 ) ;
#166 = DIRECTION ( 'NONE',  ( -0.7071067811865257013, 0.000000000000000000, 0.7071067811865691111 ) ) ;
#167 = CARTESIAN_POINT ( 'NONE',  ( 6.000000000000000888, 0.000000000000000000, 0.000000000000000000 ) ) ;
#168 = EDGE_LOOP ( 'NONE', ( #80, #100, #214, #76 ) ) ;
#169 = CIRCLE ( 'NONE', #19, 0.3125000000000000000 ) ;
#170 = CARTESIAN_POINT ( 'NONE',  ( 6.000000000000000888, 0.000000000000000000, 0.000000000000000000 ) ) ;
#171 = DIRECTION ( 'NONE',  ( -1.000000000000000000, -0.000000000000000000, -0.000000000000000000 ) ) ;
#172 = CARTESIAN_POINT ( 'NONE',  ( -5.989999999999986002, 0.000000000000000000, -0.3125000000000000000 ) ) ;
#173 = EDGE_CURVE ( 'NONE', #179, #18, #169, .T. ) ;
#174 = LINE ( 'NONE', #74, #38 ) ;
#175 = PRODUCT ( 'NIL10SS-012.000-SL', 'NIL10SS-012.000-SL', '', ( #111 ) ) ;
#176 = DATE_TIME_ROLE ( 'creation_date' ) ;
#177 = VERTEX_POINT ( 'NONE', #189 ) ;
#178 = CALENDAR_DATE ( 2023, 7, 6 ) ;
#179 = VERTEX_POINT ( 'NONE', #45 ) ;
#180 = DATE_TIME_ROLE ( 'classification_date' ) ;
#181 = VERTEX_POINT ( 'NONE', #129 ) ;
#182 = APPROVAL_PERSON_ORGANIZATION ( #32, #28, #199 ) ;
#183 = CARTESIAN_POINT ( 'NONE',  ( 6.000000000000000888, 3.827021247335477694E-17, -0.3125000000000000000 ) ) ;
#184 = CC_DESIGN_APPROVAL ( #28, ( #58 ) ) ;
#185 = PLANE ( 'NONE',  #98 ) ;
#186 = ADVANCED_FACE ( 'NONE', ( #107 ), #269, .T. ) ;
#187 = DIRECTION ( 'NONE',  ( 0.000000000000000000, 0.000000000000000000, -1.000000000000000000 ) ) ;
#188 = EDGE_CURVE ( 'NONE', #179, #64, #138, .T. ) ;
#189 = CARTESIAN_POINT ( 'NONE',  ( -6.000000000000000888, 0.000000000000000000, -0.3024999999999872236 ) ) ;
#190 = DIRECTION ( 'NONE',  ( 1.000000000000000000, -0.000000000000000000, -0.000000000000000000 ) ) ;
#191 = CARTESIAN_POINT ( 'NONE',  ( 6.000000000000000888, 0.000000000000000000, 0.000000000000000000 ) ) ;
#192 = AXIS2_PLACEMENT_3D ( 'NONE', #29, #219, #31 ) ;
#193 = PERSON_AND_ORGANIZATION ( #24, #63 ) ;
#194 = PERSON_AND_ORGANIZATION ( #24, #63 ) ;
#195 = ADVANCED_FACE ( 'NONE', ( #135 ), #50, .T. ) ;
#196 = AXIS2_PLACEMENT_3D ( 'NONE', #124, #210, #23 ) ;
#197 = COORDINATED_UNIVERSAL_TIME_OFFSET ( 5, 0, .BEHIND. ) ;
#198 = AXIS2_PLACEMENT_3D ( 'NONE', #167, #171, #211 ) ;
#199 = APPROVAL_ROLE ( '' ) ;
#200 = ORIENTED_EDGE ( 'NONE', *, *, #61, .T. ) ;
#201 = CALENDAR_DATE ( 2023, 7, 6 ) ;
#202 = ORIENTED_EDGE ( 'NONE', *, *, #43, .T. ) ;
#203 = APPLICATION_CONTEXT ( 'configuration controlled 3d designs of mechanical parts and assemblies' ) ;
#204 = AXIS2_PLACEMENT_3D ( 'NONE', #191, #54, #49 ) ;
#205 = ORIENTED_EDGE ( 'NONE', *, *, #43, .F. ) ;
#206 = CARTESIAN_POINT ( 'NONE',  ( 5.990000000000002878, 3.827021247335477694E-17, -0.3125000000000000000 ) ) ;
#207 = CIRCLE ( 'NONE', #8, 0.3025000000000014344 ) ;
#208 = LOCAL_TIME ( 8, 30, 16.00000000000000000, #11 ) ;
#209 = CYLINDRICAL_SURFACE ( 'NONE', #198, 0.3125000000000000000 ) ;
#210 = DIRECTION ( 'NONE',  ( -1.000000000000000000, -0.000000000000000000, -0.000000000000000000 ) ) ;
#211 = DIRECTION ( 'NONE',  ( 0.000000000000000000, 0.000000000000000000, 1.000000000000000000 ) ) ;
#212 = CLOSED_SHELL ( 'NONE', ( #186, #215, #195, #81, #110, #55, #143, #14 ) ) ;
#213 = AXIS2_PLACEMENT_3D ( 'NONE', #150, #85, #187 ) ;
#214 = ORIENTED_EDGE ( 'NONE', *, *, #173, .F. ) ;
#215 = ADVANCED_FACE ( 'NONE', ( #216 ), #162, .T. ) ;
#216 = FACE_OUTER_BOUND ( 'NONE', #168, .T. ) ;
#217 = AXIS2_PLACEMENT_3D ( 'NONE', #71, #42, #103 ) ;
#218 = DIRECTION ( 'NONE',  ( 0.7071067811866030839, 0.000000000000000000, -0.7071067811864919506 ) ) ;
#219 = DIRECTION ( 'NONE',  ( 0.000000000000000000, 0.000000000000000000, 1.000000000000000000 ) ) ;
#220 = COORDINATED_UNIVERSAL_TIME_OFFSET ( 5, 0, .BEHIND. ) ;
#221 = PERSON_AND_ORGANIZATION_ROLE ( 'classification_officer' ) ;
#222 = LOCAL_TIME ( 8, 30, 16.00000000000000000, #4 ) ;
#223 = ORIENTED_EDGE ( 'NONE', *, *, #156, .T. ) ;
#224 = PERSON_AND_ORGANIZATION ( #24, #63 ) ;
#225 = ORIENTED_EDGE ( 'NONE', *, *, #61, .F. ) ;
#226 = EDGE_LOOP ( 'NONE', ( #142, #99, #39, #37 ) ) ;
#227 = CARTESIAN_POINT ( 'NONE',  ( -6.000000000000000888, 0.000000000000000000, 0.000000000000000000 ) ) ;
#228 = DIRECTION ( 'NONE',  ( 1.000000000000000000, -0.000000000000000000, -0.000000000000000000 ) ) ;
#229 = CIRCLE ( 'NONE', #67, 0.3125000000000000000 ) ;
#230 = CARTESIAN_POINT ( 'NONE',  ( 5.990000000000002878, 0.000000000000000000, 0.000000000000000000 ) ) ;
#231 = DIRECTION ( 'NONE',  ( -1.000000000000000000, 0.000000000000000000, 0.000000000000000000 ) ) ;
#232 = APPROVAL ( #139, 'UNSPECIFIED' ) ;
#233 = DIRECTION ( 'NONE',  ( 0.000000000000000000, 0.000000000000000000, -1.000000000000000000 ) ) ;
#234 = AXIS2_PLACEMENT_3D ( 'NONE', #230, #20, #65 ) ;
#235 = AXIS2_PLACEMENT_3D ( 'NONE', #89, #91, #137 ) ;
#236 = APPLICATION_PROTOCOL_DEFINITION ( 'international standard', 'config_control_design', 1994, #119 ) ;
#237 = EDGE_CURVE ( 'NONE', #79, #64, #174, .T. ) ;
#238 = DIRECTION ( 'NONE',  ( 1.000000000000000000, -0.000000000000000000, -0.000000000000000000 ) ) ;
#239 = CIRCLE ( 'NONE', #152, 0.3024999999999872236 ) ;
#240 = CC_DESIGN_SECURITY_CLASSIFICATION ( #58, ( #21 ) ) ;
#241 =( NAMED_UNIT ( * ) PLANE_ANGLE_UNIT ( ) SI_UNIT ( $, .RADIAN. ) );
#242 = CARTESIAN_POINT ( 'NONE',  ( 6.000000000000000888, 0.000000000000000000, 0.3125000000000000000 ) ) ;
#243 = APPROVAL_STATUS ( 'not_yet_approved' ) ;
#244 = CC_DESIGN_PERSON_AND_ORGANIZATION_ASSIGNMENT ( #95, #263, ( #21 ) ) ;
#245 = APPROVAL_DATE_TIME ( #77, #28 ) ;
#246 = ORIENTED_EDGE ( 'NONE', *, *, #121, .F. ) ;
#247 = VERTEX_POINT ( 'NONE', #114 ) ;
#248 = EDGE_LOOP ( 'NONE', ( #267, #62, #13, #122 ) ) ;
#249 = DIRECTION ( 'NONE',  ( 0.000000000000000000, 0.000000000000000000, -1.000000000000000000 ) ) ;
#250 = EDGE_CURVE ( 'NONE', #164, #18, #133, .T. ) ;
#251 = CARTESIAN_POINT ( 'NONE',  ( 6.000000000000000888, 0.000000000000000000, 0.000000000000000000 ) ) ;
#252 = DIRECTION ( 'NONE',  ( -1.000000000000000000, -0.000000000000000000, -0.000000000000000000 ) ) ;
#253 = FACE_OUTER_BOUND ( 'NONE', #163, .T. ) ;
#254 = EDGE_CURVE ( 'NONE', #177, #181, #134, .T. ) ;
#255 = CARTESIAN_POINT ( 'NONE',  ( 6.000000000000000888, 0.000000000000000000, 0.3025000000000014344 ) ) ;
#256 =( CONVERSION_BASED_UNIT ( 'INCH', #26 ) LENGTH_UNIT ( ) NAMED_UNIT ( #108 ) );
#257 = SHAPE_DEFINITION_REPRESENTATION ( #70, #27 ) ;
#258 = UNCERTAINTY_MEASURE_WITH_UNIT (LENGTH_MEASURE( 1.000000000000000082E-05 ), #256, 'distance_accuracy_value', 'NONE');
#259 = APPLICATION_PROTOCOL_DEFINITION ( 'international standard', 'config_control_design', 1994, #203 ) ;
#260 = DIRECTION ( 'NONE',  ( 0.7071067811866030839, 8.659560562354252466E-17, 0.7071067811864919506 ) ) ;
#261 = AXIS2_PLACEMENT_3D ( 'NONE', #127, #190, #83 ) ;
#262 =( LENGTH_UNIT ( ) NAMED_UNIT ( * ) SI_UNIT ( $, .METRE. ) );
#263 = PERSON_AND_ORGANIZATION_ROLE ( 'creator' ) ;
#264 = EDGE_LOOP ( 'NONE', ( #60, #97 ) ) ;
#265 = CALENDAR_DATE ( 2023, 7, 6 ) ;
#266 = ORIENTED_EDGE ( 'NONE', *, *, #90, .T. ) ;
#267 = ORIENTED_EDGE ( 'NONE', *, *, #250, .F. ) ;
#268 = PRODUCT_DEFINITION ( 'UNKNOWN', '', #21, #132 ) ;
#269 = CONICAL_SURFACE ( 'NONE', #51, 0.3125000000000000000, 0.7853981633973696752 ) ;
#270 = DIRECTION ( 'NONE',  ( 0.000000000000000000, 0.000000000000000000, -1.000000000000000000 ) ) ;
#271 = CC_DESIGN_DATE_AND_TIME_ASSIGNMENT ( #96, #180, ( #58 ) ) ;
#272 = DIRECTION ( 'NONE',  ( 0.000000000000000000, 0.000000000000000000, -1.000000000000000000 ) ) ;
#273 = CARTESIAN_POINT ( 'NONE',  ( 6.000000000000000888, 0.000000000000000000, 0.000000000000000000 ) ) ;
#274 = DIRECTION ( 'NONE',  ( 0.000000000000000000, 0.000000000000000000, -1.000000000000000000 ) ) ;
#275 = VECTOR ( 'NONE', #218, 39.37007874015748143 ) ;
#276 = CARTESIAN_POINT ( 'NONE',  ( -5.989999999999986002, 0.000000000000000000, 0.000000000000000000 ) ) ;
#277 = CARTESIAN_POINT ( 'NONE',  ( 6.000000000000000888, 3.704556567420761133E-17, -0.3025000000000014344 ) ) ;
#278 = DIRECTION ( 'NONE',  ( -1.000000000000000000, -0.000000000000000000, -0.000000000000000000 ) ) ;
ENDSEC;
END-ISO-10303-21;
