ISO-10303-21;
HEADER;
FILE_DESCRIPTION (( 'STEP AP203' ),
    '1' );
FILE_NAME ('NIL10-036.000-SL.step',
    '2023-06-07T12:30:11',
    ( '' ),
    ( '' ),
    'SwSTEP 2.0',
    'SolidWorks 2021',
    '' );
FILE_SCHEMA (( 'CONFIG_CONTROL_DESIGN' ));
ENDSEC;

DATA;
#1 = CIRCLE ( 'NONE', #133, 0.3024999999999851141 ) ;
#2 = PERSON_AND_ORGANIZATION ( #235, #101 ) ;
#3 = EDGE_CURVE ( 'NONE', #266, #221, #73, .T. ) ;
#4 = SHAPE_DEFINITION_REPRESENTATION ( #29, #262 ) ;
#5 = CC_DESIGN_APPROVAL ( #231, ( #199 ) ) ;
#6 = ORIENTED_EDGE ( 'NONE', *, *, #84, .T. ) ;
#7 = ORIENTED_EDGE ( 'NONE', *, *, #9, .T. ) ;
#8 = CARTESIAN_POINT ( 'NONE',  ( 18.00000000000000000, 0.000000000000000000, 0.000000000000000000 ) ) ;
#9 = EDGE_CURVE ( 'NONE', #97, #14, #157, .T. ) ;
#10 = EDGE_CURVE ( 'NONE', #176, #98, #110, .T. ) ;
#11 = AXIS2_PLACEMENT_3D ( 'NONE', #208, #166, #162 ) ;
#12 = LOCAL_TIME ( 8, 30, 11.00000000000000000, #24 ) ;
#13 = ORIENTED_EDGE ( 'NONE', *, *, #10, .T. ) ;
#14 = VERTEX_POINT ( 'NONE', #138 ) ;
#15 = CARTESIAN_POINT ( 'NONE',  ( -17.98999999999998423, 0.000000000000000000, 0.000000000000000000 ) ) ;
#16 = CONICAL_SURFACE ( 'NONE', #244, 0.3125000000000000000, 0.7853981633973664556 ) ;
#17 = DIRECTION ( 'NONE',  ( 0.000000000000000000, 0.000000000000000000, -1.000000000000000000 ) ) ;
#18 = SECURITY_CLASSIFICATION_LEVEL ( 'unclassified' ) ;
#19 = CARTESIAN_POINT ( 'NONE',  ( 18.00000000000000000, 0.000000000000000000, 0.3025000000000026001 ) ) ;
#20 = CARTESIAN_POINT ( 'NONE',  ( 18.00000000000000000, 3.765788907378126809E-17, -0.3025000000000026001 ) ) ;
#21 = ADVANCED_FACE ( 'NONE', ( #220 ), #16, .T. ) ;
#22 = DIRECTION ( 'NONE',  ( 1.000000000000000000, 0.000000000000000000, 0.000000000000000000 ) ) ;
#23 = AXIS2_PLACEMENT_3D ( 'NONE', #123, #65, #141 ) ;
#24 = COORDINATED_UNIVERSAL_TIME_OFFSET ( 5, 0, .BEHIND. ) ;
#25 = PERSON_AND_ORGANIZATION_ROLE ( 'design_supplier' ) ;
#26 = CIRCLE ( 'NONE', #204, 0.3125000000000000000 ) ;
#27 = APPROVAL_STATUS ( 'not_yet_approved' ) ;
#28 = LOCAL_TIME ( 8, 30, 11.00000000000000000, #165 ) ;
#29 = PRODUCT_DEFINITION_SHAPE ( 'NONE', 'NONE',  #79 ) ;
#30 = COORDINATED_UNIVERSAL_TIME_OFFSET ( 5, 0, .BEHIND. ) ;
#31 = EDGE_CURVE ( 'NONE', #266, #97, #238, .T. ) ;
#32 = VERTEX_POINT ( 'NONE', #83 ) ;
#33 = DIRECTION ( 'NONE',  ( 0.000000000000000000, 0.000000000000000000, -1.000000000000000000 ) ) ;
#34 = ORIENTED_EDGE ( 'NONE', *, *, #31, .T. ) ;
#35 = EDGE_CURVE ( 'NONE', #98, #32, #164, .T. ) ;
#36 = ORIENTED_EDGE ( 'NONE', *, *, #9, .F. ) ;
#37 = FACE_OUTER_BOUND ( 'NONE', #219, .T. ) ;
#38 = AXIS2_PLACEMENT_3D ( 'NONE', #41, #143, #268 ) ;
#39 = VERTEX_POINT ( 'NONE', #99 ) ;
#40 = DIRECTION ( 'NONE',  ( 0.000000000000000000, 0.000000000000000000, -1.000000000000000000 ) ) ;
#41 = CARTESIAN_POINT ( 'NONE',  ( 18.00000000000000000, 0.000000000000000000, 0.000000000000000000 ) ) ;
#42 = CALENDAR_DATE ( 2023, 7, 6 ) ;
#43 = DIRECTION ( 'NONE',  ( 0.000000000000000000, 0.000000000000000000, -1.000000000000000000 ) ) ;
#44 = FACE_OUTER_BOUND ( 'NONE', #78, .T. ) ;
#45 = APPLICATION_PROTOCOL_DEFINITION ( 'international standard', 'config_control_design', 1994, #211 ) ;
#46 = APPLICATION_CONTEXT ( 'configuration controlled 3d designs of mechanical parts and assemblies' ) ;
#47 = DESIGN_CONTEXT ( 'detailed design', #211, 'design' ) ;
#48 = CIRCLE ( 'NONE', #86, 0.3125000000000000000 ) ;
#49 = APPROVAL_PERSON_ORGANIZATION ( #167, #193, #109 ) ;
#50 = EDGE_CURVE ( 'NONE', #98, #176, #145, .T. ) ;
#51 = EDGE_LOOP ( 'NONE', ( #95, #34 ) ) ;
#52 = DIRECTION ( 'NONE',  ( 0.000000000000000000, 0.000000000000000000, -1.000000000000000000 ) ) ;
#53 = CARTESIAN_POINT ( 'NONE',  ( -18.00000000000000000, 3.765788907378019573E-17, 0.3024999999999851141 ) ) ;
#54 = VECTOR ( 'NONE', #189, 39.37007874015748143 ) ;
#55 = APPROVAL_PERSON_ORGANIZATION ( #2, #231, #173 ) ;
#56 = PRODUCT ( 'NIL10-036.000-SL', 'NIL10-036.000-SL', '', ( #82 ) ) ;
#57 = ORIENTED_EDGE ( 'NONE', *, *, #3, .T. ) ;
#58 = ORIENTED_EDGE ( 'NONE', *, *, #50, .T. ) ;
#59 = ADVANCED_FACE ( 'NONE', ( #44 ), #174, .T. ) ;
#60 = EDGE_LOOP ( 'NONE', ( #74, #134, #7, #114 ) ) ;
#61 = CLOSED_SHELL ( 'NONE', ( #260, #59, #277, #130, #158, #92, #239, #21 ) ) ;
#62 = CARTESIAN_POINT ( 'NONE',  ( 18.00000000000000000, 0.000000000000000000, 0.3025000000000026001 ) ) ;
#63 = DIRECTION ( 'NONE',  ( 1.000000000000000000, -0.000000000000000000, -0.000000000000000000 ) ) ;
#64 = PERSON_AND_ORGANIZATION_ROLE ( 'design_owner' ) ;
#65 = DIRECTION ( 'NONE',  ( 1.000000000000000000, 0.000000000000000000, 0.000000000000000000 ) ) ;
#66 = DATE_AND_TIME ( #246, #28 ) ;
#67 = AXIS2_PLACEMENT_3D ( 'NONE', #15, #63, #182 ) ;
#68 = DIRECTION ( 'NONE',  ( -1.000000000000000000, 0.000000000000000000, 0.000000000000000000 ) ) ;
#69 = DIRECTION ( 'NONE',  ( -1.000000000000000000, -0.000000000000000000, -0.000000000000000000 ) ) ;
#70 = APPROVAL_STATUS ( 'not_yet_approved' ) ;
#71 = AXIS2_PLACEMENT_3D ( 'NONE', #247, #22, #40 ) ;
#72 = AXIS2_PLACEMENT_3D ( 'NONE', #169, #245, #17 ) ;
#73 = LINE ( 'NONE', #137, #75 ) ;
#74 = ORIENTED_EDGE ( 'NONE', *, *, #3, .F. ) ;
#75 = VECTOR ( 'NONE', #156, 39.37007874015748854 ) ;
#76 = ORIENTED_EDGE ( 'NONE', *, *, #115, .T. ) ;
#77 = EDGE_LOOP ( 'NONE', ( #224, #200, #198, #117 ) ) ;
#78 = EDGE_LOOP ( 'NONE', ( #180, #237, #242, #197 ) ) ;
#79 = PRODUCT_DEFINITION ( 'UNKNOWN', '', #214, #47 ) ;
#80 = AXIS2_PLACEMENT_3D ( 'NONE', #195, #91, #272 ) ;
#81 = CYLINDRICAL_SURFACE ( 'NONE', #275, 0.3125000000000000000 ) ;
#82 = MECHANICAL_CONTEXT ( 'NONE', #46, 'mechanical' ) ;
#83 = CARTESIAN_POINT ( 'NONE',  ( 17.98999999999999844, 3.827021247335478926E-17, -0.3125000000000000000 ) ) ;
#84 = EDGE_CURVE ( 'NONE', #221, #14, #48, .T. ) ;
#85 = CARTESIAN_POINT ( 'NONE',  ( 18.00000000000000000, 0.000000000000000000, 0.000000000000000000 ) ) ;
#86 = AXIS2_PLACEMENT_3D ( 'NONE', #203, #146, #43 ) ;
#87 = DIRECTION ( 'NONE',  ( -1.000000000000000000, -0.000000000000000000, -0.000000000000000000 ) ) ;
#88 = CC_DESIGN_SECURITY_CLASSIFICATION ( #199, ( #214 ) ) ;
#89 = DATE_AND_TIME ( #278, #12 ) ;
#90 = CALENDAR_DATE ( 2023, 7, 6 ) ;
#91 = DIRECTION ( 'NONE',  ( -1.000000000000000000, -0.000000000000000000, -0.000000000000000000 ) ) ;
#92 = ADVANCED_FACE ( 'NONE', ( #108 ), #269, .F. ) ;
#93 = CC_DESIGN_PERSON_AND_ORGANIZATION_ASSIGNMENT ( #215, #207, ( #214 ) ) ;
#94 = VECTOR ( 'NONE', #171, 39.37007874015748143 ) ;
#95 = ORIENTED_EDGE ( 'NONE', *, *, #218, .T. ) ;
#96 = DIRECTION ( 'NONE',  ( 1.000000000000000000, 0.000000000000000000, 0.000000000000000000 ) ) ;
#97 = VERTEX_POINT ( 'NONE', #102 ) ;
#98 = VERTEX_POINT ( 'NONE', #20 ) ;
#99 = CARTESIAN_POINT ( 'NONE',  ( 17.98999999999999844, 0.000000000000000000, 0.3125000000000000000 ) ) ;
#100 = CC_DESIGN_PERSON_AND_ORGANIZATION_ASSIGNMENT ( #186, #188, ( #199 ) ) ;
#101 = ORGANIZATION ( 'UNSPECIFIED', 'UNSPECIFIED', '' ) ;
#102 = CARTESIAN_POINT ( 'NONE',  ( -18.00000000000000000, 0.000000000000000000, -0.3024999999999851141 ) ) ;
#103 = DIRECTION ( 'NONE',  ( 0.000000000000000000, 0.000000000000000000, 1.000000000000000000 ) ) ;
#104 = CARTESIAN_POINT ( 'NONE',  ( -18.00000000000000000, 0.000000000000000000, 0.000000000000000000 ) ) ;
#105 = PERSON_AND_ORGANIZATION_ROLE ( 'creator' ) ;
#106 = EDGE_CURVE ( 'NONE', #176, #39, #140, .T. ) ;
#107 = CARTESIAN_POINT ( 'NONE',  ( 18.00000000000000000, 3.704556567420774692E-17, -0.3025000000000026001 ) ) ;
#108 = FACE_OUTER_BOUND ( 'NONE', #51, .T. ) ;
#109 = APPROVAL_ROLE ( '' ) ;
#110 = CIRCLE ( 'NONE', #263, 0.3025000000000026001 ) ;
#111 = DATE_AND_TIME ( #90, #168 ) ;
#112 = ORIENTED_EDGE ( 'NONE', *, *, #120, .T. ) ;
#113 = CYLINDRICAL_SURFACE ( 'NONE', #80, 0.3125000000000000000 ) ;
#114 = ORIENTED_EDGE ( 'NONE', *, *, #84, .F. ) ;
#115 = EDGE_CURVE ( 'NONE', #32, #14, #184, .T. ) ;
#116 = CARTESIAN_POINT ( 'NONE',  ( -17.98999999999998423, 0.000000000000000000, 0.000000000000000000 ) ) ;
#117 = ORIENTED_EDGE ( 'NONE', *, *, #216, .F. ) ;
#118 = VECTOR ( 'NONE', #276, 39.37007874015748143 ) ;
#119 = LOCAL_TIME ( 8, 30, 11.00000000000000000, #149 ) ;
#120 = EDGE_CURVE ( 'NONE', #39, #32, #26, .T. ) ;
#121 = FACE_OUTER_BOUND ( 'NONE', #77, .T. ) ;
#122 = DATE_AND_TIME ( #42, #119 ) ;
#123 = CARTESIAN_POINT ( 'NONE',  ( 18.00000000000000000, 0.000000000000000000, 0.000000000000000000 ) ) ;
#124 = PERSON_AND_ORGANIZATION ( #235, #101 ) ;
#125 = DIRECTION ( 'NONE',  ( -1.000000000000000000, 0.000000000000000000, 0.000000000000000000 ) ) ;
#126 = PRODUCT_RELATED_PRODUCT_CATEGORY ( 'detail', '', ( #56 ) ) ;
#127 = CARTESIAN_POINT ( 'NONE',  ( 18.00000000000000000, 0.000000000000000000, 0.000000000000000000 ) ) ;
#128 =( CONVERSION_BASED_UNIT ( 'INCH', #202 ) LENGTH_UNIT ( ) NAMED_UNIT ( #150 ) );
#129 = APPLICATION_PROTOCOL_DEFINITION ( 'international standard', 'config_control_design', 1994, #46 ) ;
#130 = ADVANCED_FACE ( 'NONE', ( #210 ), #81, .T. ) ;
#131 = VECTOR ( 'NONE', #230, 39.37007874015748143 ) ;
#132 = APPROVAL_DATE_TIME ( #122, #136 ) ;
#133 = AXIS2_PLACEMENT_3D ( 'NONE', #104, #69, #271 ) ;
#134 = ORIENTED_EDGE ( 'NONE', *, *, #218, .F. ) ;
#135 = APPROVAL_PERSON_ORGANIZATION ( #270, #136, #142 ) ;
#136 = APPROVAL ( #70, 'UNSPECIFIED' ) ;
#137 = CARTESIAN_POINT ( 'NONE',  ( -17.98999999999998423, 3.827021247335478926E-17, 0.3125000000000000000 ) ) ;
#138 = CARTESIAN_POINT ( 'NONE',  ( -17.98999999999998423, 3.827021247335478926E-17, -0.3125000000000000000 ) ) ;
#139 = ORIENTED_EDGE ( 'NONE', *, *, #216, .T. ) ;
#140 = LINE ( 'NONE', #62, #118 ) ;
#141 = DIRECTION ( 'NONE',  ( 0.000000000000000000, 0.000000000000000000, -1.000000000000000000 ) ) ;
#142 = APPROVAL_ROLE ( '' ) ;
#143 = DIRECTION ( 'NONE',  ( -1.000000000000000000, 0.000000000000000000, 0.000000000000000000 ) ) ;
#144 = DATE_TIME_ROLE ( 'classification_date' ) ;
#145 = CIRCLE ( 'NONE', #23, 0.3025000000000026001 ) ;
#146 = DIRECTION ( 'NONE',  ( 1.000000000000000000, -0.000000000000000000, -0.000000000000000000 ) ) ;
#147 = COORDINATED_UNIVERSAL_TIME_OFFSET ( 5, 0, .BEHIND. ) ;
#148 = DIRECTION ( 'NONE',  ( 0.000000000000000000, 0.000000000000000000, 1.000000000000000000 ) ) ;
#149 = COORDINATED_UNIVERSAL_TIME_OFFSET ( 5, 0, .BEHIND. ) ;
#150 = DIMENSIONAL_EXPONENTS ( 1.000000000000000000, 0.000000000000000000, 0.000000000000000000, 0.000000000000000000, 0.000000000000000000, 0.000000000000000000, 0.000000000000000000 ) ;
#151 =( GEOMETRIC_REPRESENTATION_CONTEXT ( 3 ) GLOBAL_UNCERTAINTY_ASSIGNED_CONTEXT ( ( #192 ) ) GLOBAL_UNIT_ASSIGNED_CONTEXT ( ( #128, #251, #185 ) ) REPRESENTATION_CONTEXT ( 'NONE', 'WORKASPACE' ) );
#152 = CARTESIAN_POINT ( 'NONE',  ( 18.00000000000000000, 0.000000000000000000, 0.3125000000000000000 ) ) ;
#153 = APPROVAL_DATE_TIME ( #111, #231 ) ;
#154 = CONICAL_SURFACE ( 'NONE', #217, 0.3025000000000026001, 0.7853981633972570986 ) ;
#155 = LOCAL_TIME ( 8, 30, 11.00000000000000000, #147 ) ;
#156 = DIRECTION ( 'NONE',  ( 0.7071067811866054154, 8.659560562354224116E-17, 0.7071067811864895081 ) ) ;
#157 = LINE ( 'NONE', #241, #258 ) ;
#158 = ADVANCED_FACE ( 'NONE', ( #206 ), #225, .T. ) ;
#159 = DIRECTION ( 'NONE',  ( 0.000000000000000000, 0.000000000000000000, -1.000000000000000000 ) ) ;
#160 = EDGE_LOOP ( 'NONE', ( #236, #57, #267, #36 ) ) ;
#161 = CARTESIAN_POINT ( 'NONE',  ( 18.00000000000000000, 3.827021247335478926E-17, -0.3125000000000000000 ) ) ;
#162 = DIRECTION ( 'NONE',  ( 0.000000000000000000, 0.000000000000000000, -1.000000000000000000 ) ) ;
#163 = CALENDAR_DATE ( 2023, 7, 6 ) ;
#164 = LINE ( 'NONE', #107, #131 ) ;
#165 = COORDINATED_UNIVERSAL_TIME_OFFSET ( 5, 0, .BEHIND. ) ;
#166 = DIRECTION ( 'NONE',  ( 1.000000000000000000, -0.000000000000000000, -0.000000000000000000 ) ) ;
#167 = PERSON_AND_ORGANIZATION ( #235, #101 ) ;
#168 = LOCAL_TIME ( 8, 30, 11.00000000000000000, #30 ) ;
#169 = CARTESIAN_POINT ( 'NONE',  ( -18.00000000000000000, 0.000000000000000000, 0.000000000000000000 ) ) ;
#170 = CC_DESIGN_DATE_AND_TIME_ASSIGNMENT ( #89, #253, ( #79 ) ) ;
#171 = DIRECTION ( 'NONE',  ( -1.000000000000000000, -0.000000000000000000, -0.000000000000000000 ) ) ;
#172 = CC_DESIGN_DATE_AND_TIME_ASSIGNMENT ( #66, #144, ( #199 ) ) ;
#173 = APPROVAL_ROLE ( '' ) ;
#174 = CONICAL_SURFACE ( 'NONE', #38, 0.3025000000000026001, 0.7853981633972570986 ) ;
#175 = CC_DESIGN_PERSON_AND_ORGANIZATION_ASSIGNMENT ( #124, #64, ( #56 ) ) ;
#176 = VERTEX_POINT ( 'NONE', #19 ) ;
#177 = EDGE_LOOP ( 'NONE', ( #181, #139, #259, #6 ) ) ;
#178 = DIRECTION ( 'NONE',  ( 1.000000000000000000, -0.000000000000000000, -0.000000000000000000 ) ) ;
#179 = CIRCLE ( 'NONE', #254, 0.3125000000000000000 ) ;
#180 = ORIENTED_EDGE ( 'NONE', *, *, #50, .F. ) ;
#181 = ORIENTED_EDGE ( 'NONE', *, *, #115, .F. ) ;
#182 = DIRECTION ( 'NONE',  ( 0.000000000000000000, 0.000000000000000000, -1.000000000000000000 ) ) ;
#183 = AXIS2_PLACEMENT_3D ( 'NONE', #209, #103, #252 ) ;
#184 = LINE ( 'NONE', #161, #54 ) ;
#185 =( NAMED_UNIT ( * ) SI_UNIT ( $, .STERADIAN. ) SOLID_ANGLE_UNIT ( ) );
#186 = PERSON_AND_ORGANIZATION ( #235, #101 ) ;
#187 = CARTESIAN_POINT ( 'NONE',  ( 17.98999999999999844, 0.000000000000000000, 0.000000000000000000 ) ) ;
#188 = PERSON_AND_ORGANIZATION_ROLE ( 'classification_officer' ) ;
#189 = DIRECTION ( 'NONE',  ( -1.000000000000000000, -0.000000000000000000, -0.000000000000000000 ) ) ;
#190 =( LENGTH_UNIT ( ) NAMED_UNIT ( * ) SI_UNIT ( $, .METRE. ) );
#191 = DIRECTION ( 'NONE',  ( -1.000000000000000000, 0.000000000000000000, 0.000000000000000000 ) ) ;
#192 = UNCERTAINTY_MEASURE_WITH_UNIT (LENGTH_MEASURE( 1.000000000000000082E-05 ), #128, 'distance_accuracy_value', 'NONE');
#193 = APPROVAL ( #249, 'UNSPECIFIED' ) ;
#194 = ORIENTED_EDGE ( 'NONE', *, *, #256, .T. ) ;
#195 = CARTESIAN_POINT ( 'NONE',  ( 18.00000000000000000, 0.000000000000000000, 0.000000000000000000 ) ) ;
#196 = EDGE_LOOP ( 'NONE', ( #13, #58 ) ) ;
#197 = ORIENTED_EDGE ( 'NONE', *, *, #106, .F. ) ;
#198 = ORIENTED_EDGE ( 'NONE', *, *, #106, .T. ) ;
#199 = SECURITY_CLASSIFICATION ( '', '', #18 ) ;
#200 = ORIENTED_EDGE ( 'NONE', *, *, #10, .F. ) ;
#201 = FACE_OUTER_BOUND ( 'NONE', #160, .T. ) ;
#202 = LENGTH_MEASURE_WITH_UNIT ( LENGTH_MEASURE( 0.02539999999999999897 ), #190 );
#203 = CARTESIAN_POINT ( 'NONE',  ( -17.98999999999998423, 0.000000000000000000, 0.000000000000000000 ) ) ;
#204 = AXIS2_PLACEMENT_3D ( 'NONE', #233, #125, #227 ) ;
#205 = PERSON_AND_ORGANIZATION ( #235, #101 ) ;
#206 = FACE_OUTER_BOUND ( 'NONE', #196, .T. ) ;
#207 = PERSON_AND_ORGANIZATION_ROLE ( 'creator' ) ;
#208 = CARTESIAN_POINT ( 'NONE',  ( -17.98999999999998423, 0.000000000000000000, 0.000000000000000000 ) ) ;
#209 = CARTESIAN_POINT ( 'NONE',  ( 0.000000000000000000, 0.000000000000000000, 0.000000000000000000 ) ) ;
#210 = FACE_OUTER_BOUND ( 'NONE', #177, .T. ) ;
#211 = APPLICATION_CONTEXT ( 'configuration controlled 3d designs of mechanical parts and assemblies' ) ;
#212 = DATE_AND_TIME ( #163, #155 ) ;
#213 = CONICAL_SURFACE ( 'NONE', #67, 0.3125000000000000000, 0.7853981633973664556 ) ;
#214 = PRODUCT_DEFINITION_FORMATION_WITH_SPECIFIED_SOURCE ( 'ANY', '', #56, .NOT_KNOWN. ) ;
#215 = PERSON_AND_ORGANIZATION ( #235, #101 ) ;
#216 = EDGE_CURVE ( 'NONE', #32, #39, #179, .T. ) ;
#217 = AXIS2_PLACEMENT_3D ( 'NONE', #85, #68, #250 ) ;
#218 = EDGE_CURVE ( 'NONE', #97, #266, #1, .T. ) ;
#219 = EDGE_LOOP ( 'NONE', ( #112, #76, #194, #261 ) ) ;
#220 = FACE_OUTER_BOUND ( 'NONE', #60, .T. ) ;
#221 = VERTEX_POINT ( 'NONE', #243 ) ;
#222 = CARTESIAN_POINT ( 'NONE',  ( -18.00000000000000000, 0.000000000000000000, 0.000000000000000000 ) ) ;
#223 = CC_DESIGN_PERSON_AND_ORGANIZATION_ASSIGNMENT ( #205, #25, ( #214 ) ) ;
#224 = ORIENTED_EDGE ( 'NONE', *, *, #35, .F. ) ;
#225 = PLANE ( 'NONE',  #71 ) ;
#226 = LINE ( 'NONE', #152, #94 ) ;
#227 = DIRECTION ( 'NONE',  ( 0.000000000000000000, 0.000000000000000000, -1.000000000000000000 ) ) ;
#228 = AXIS2_PLACEMENT_3D ( 'NONE', #222, #264, #159 ) ;
#229 = APPROVAL_DATE_TIME ( #212, #193 ) ;
#230 = DIRECTION ( 'NONE',  ( -0.7071067811866827979, 8.659560562353278715E-17, -0.7071067811864123476 ) ) ;
#231 = APPROVAL ( #27, 'UNSPECIFIED' ) ;
#232 = PERSON_AND_ORGANIZATION ( #235, #101 ) ;
#233 = CARTESIAN_POINT ( 'NONE',  ( 17.98999999999999844, 0.000000000000000000, 0.000000000000000000 ) ) ;
#234 = CC_DESIGN_APPROVAL ( #136, ( #214 ) ) ;
#235 = PERSON ( 'UNSPECIFIED', 'UNSPECIFIED', 'UNSPECIFIED', ('UNSPECIFIED'), ('UNSPECIFIED'), ('UNSPECIFIED') ) ;
#236 = ORIENTED_EDGE ( 'NONE', *, *, #31, .F. ) ;
#237 = ORIENTED_EDGE ( 'NONE', *, *, #35, .T. ) ;
#238 = CIRCLE ( 'NONE', #228, 0.3024999999999851141 ) ;
#239 = ADVANCED_FACE ( 'NONE', ( #121 ), #154, .T. ) ;
#240 = DIRECTION ( 'NONE',  ( 0.7071067811866054154, 0.000000000000000000, -0.7071067811864895081 ) ) ;
#241 = CARTESIAN_POINT ( 'NONE',  ( -17.98999999999998423, 0.000000000000000000, -0.3125000000000000000 ) ) ;
#242 = ORIENTED_EDGE ( 'NONE', *, *, #120, .F. ) ;
#243 = CARTESIAN_POINT ( 'NONE',  ( -17.98999999999998423, 0.000000000000000000, 0.3125000000000000000 ) ) ;
#244 = AXIS2_PLACEMENT_3D ( 'NONE', #116, #178, #33 ) ;
#245 = DIRECTION ( 'NONE',  ( 1.000000000000000000, 0.000000000000000000, 0.000000000000000000 ) ) ;
#246 = CALENDAR_DATE ( 2023, 7, 6 ) ;
#247 = CARTESIAN_POINT ( 'NONE',  ( 18.00000000000000000, 0.000000000000000000, 0.000000000000000000 ) ) ;
#248 = CIRCLE ( 'NONE', #11, 0.3125000000000000000 ) ;
#249 = APPROVAL_STATUS ( 'not_yet_approved' ) ;
#250 = DIRECTION ( 'NONE',  ( 0.000000000000000000, 0.000000000000000000, 1.000000000000000000 ) ) ;
#251 =( NAMED_UNIT ( * ) PLANE_ANGLE_UNIT ( ) SI_UNIT ( $, .RADIAN. ) );
#252 = DIRECTION ( 'NONE',  ( 1.000000000000000000, 0.000000000000000000, 0.000000000000000000 ) ) ;
#253 = DATE_TIME_ROLE ( 'creation_date' ) ;
#254 = AXIS2_PLACEMENT_3D ( 'NONE', #187, #191, #274 ) ;
#255 = CC_DESIGN_APPROVAL ( #193, ( #79 ) ) ;
#256 = EDGE_CURVE ( 'NONE', #14, #221, #248, .T. ) ;
#257 = MANIFOLD_SOLID_BREP ( 'Chamfer1', #61 ) ;
#258 = VECTOR ( 'NONE', #240, 39.37007874015748854 ) ;
#259 = ORIENTED_EDGE ( 'NONE', *, *, #265, .T. ) ;
#260 = ADVANCED_FACE ( 'NONE', ( #201 ), #213, .T. ) ;
#261 = ORIENTED_EDGE ( 'NONE', *, *, #265, .F. ) ;
#262 = ADVANCED_BREP_SHAPE_REPRESENTATION ( 'NIL10-036.000-SL', ( #257, #183 ), #151 ) ;
#263 = AXIS2_PLACEMENT_3D ( 'NONE', #8, #96, #52 ) ;
#264 = DIRECTION ( 'NONE',  ( -1.000000000000000000, -0.000000000000000000, -0.000000000000000000 ) ) ;
#265 = EDGE_CURVE ( 'NONE', #39, #221, #226, .T. ) ;
#266 = VERTEX_POINT ( 'NONE', #53 ) ;
#267 = ORIENTED_EDGE ( 'NONE', *, *, #256, .F. ) ;
#268 = DIRECTION ( 'NONE',  ( 0.000000000000000000, 0.000000000000000000, 1.000000000000000000 ) ) ;
#269 = PLANE ( 'NONE',  #72 ) ;
#270 = PERSON_AND_ORGANIZATION ( #235, #101 ) ;
#271 = DIRECTION ( 'NONE',  ( 0.000000000000000000, 0.000000000000000000, -1.000000000000000000 ) ) ;
#272 = DIRECTION ( 'NONE',  ( 0.000000000000000000, 0.000000000000000000, 1.000000000000000000 ) ) ;
#273 = CC_DESIGN_PERSON_AND_ORGANIZATION_ASSIGNMENT ( #232, #105, ( #79 ) ) ;
#274 = DIRECTION ( 'NONE',  ( 0.000000000000000000, 0.000000000000000000, -1.000000000000000000 ) ) ;
#275 = AXIS2_PLACEMENT_3D ( 'NONE', #127, #87, #148 ) ;
#276 = DIRECTION ( 'NONE',  ( -0.7071067811866827979, 0.000000000000000000, 0.7071067811864123476 ) ) ;
#277 = ADVANCED_FACE ( 'NONE', ( #37 ), #113, .T. ) ;
#278 = CALENDAR_DATE ( 2023, 7, 6 ) ;
ENDSEC;
END-ISO-10303-21;
