ISO-10303-21;
HEADER;
FILE_DESCRIPTION (( 'STEP AP203' ),
    '1' );
FILE_NAME ('NIL10-024.000-SL.step',
    '2023-06-07T12:30:05',
    ( '' ),
    ( '' ),
    'SwSTEP 2.0',
    'SolidWorks 2021',
    '' );
FILE_SCHEMA (( 'CONFIG_CONTROL_DESIGN' ));
ENDSEC;

DATA;
#1 = PERSON_AND_ORGANIZATION ( #227, #145 ) ;
#2 = LOCAL_TIME ( 8, 30, 5.000000000000000000, #46 ) ;
#3 = ORIENTED_EDGE ( 'NONE', *, *, #251, .T. ) ;
#4 = APPROVAL ( #132, 'UNSPECIFIED' ) ;
#5 = VERTEX_POINT ( 'NONE', #248 ) ;
#6 = PRODUCT_DEFINITION_SHAPE ( 'NONE', 'NONE',  #106 ) ;
#7 = COORDINATED_UNIVERSAL_TIME_OFFSET ( 5, 0, .BEHIND. ) ;
#8 = ORIENTED_EDGE ( 'NONE', *, *, #176, .T. ) ;
#9 = VECTOR ( 'NONE', #124, 39.37007874015748854 ) ;
#10 = VERTEX_POINT ( 'NONE', #179 ) ;
#11 = DIRECTION ( 'NONE',  ( 0.000000000000000000, 0.000000000000000000, -1.000000000000000000 ) ) ;
#12 = LINE ( 'NONE', #100, #278 ) ;
#13 = DIRECTION ( 'NONE',  ( -1.000000000000000000, -0.000000000000000000, -0.000000000000000000 ) ) ;
#14 = ORIENTED_EDGE ( 'NONE', *, *, #16, .T. ) ;
#15 = FACE_OUTER_BOUND ( 'NONE', #199, .T. ) ;
#16 = EDGE_CURVE ( 'NONE', #107, #131, #208, .T. ) ;
#17 = CARTESIAN_POINT ( 'NONE',  ( 12.00000000000000178, 3.704556567420908428E-17, -0.3025000000000134248 ) ) ;
#18 = CARTESIAN_POINT ( 'NONE',  ( 12.00000000000000178, 3.827021247335477694E-17, -0.3125000000000000000 ) ) ;
#19 =( NAMED_UNIT ( * ) PLANE_ANGLE_UNIT ( ) SI_UNIT ( $, .RADIAN. ) );
#20 = APPROVAL_ROLE ( '' ) ;
#21 = PERSON_AND_ORGANIZATION ( #227, #145 ) ;
#22 = ORIENTED_EDGE ( 'NONE', *, *, #101, .F. ) ;
#23 = AXIS2_PLACEMENT_3D ( 'NONE', #117, #59, #139 ) ;
#24 = CALENDAR_DATE ( 2023, 7, 6 ) ;
#25 = ORIENTED_EDGE ( 'NONE', *, *, #164, .F. ) ;
#26 = PERSON_AND_ORGANIZATION ( #227, #145 ) ;
#27 = ORIENTED_EDGE ( 'NONE', *, *, #101, .T. ) ;
#28 = PRODUCT_RELATED_PRODUCT_CATEGORY ( 'detail', '', ( #201 ) ) ;
#29 = DIRECTION ( 'NONE',  ( 1.000000000000000000, -0.000000000000000000, -0.000000000000000000 ) ) ;
#30 = DIRECTION ( 'NONE',  ( 1.000000000000000000, -0.000000000000000000, -0.000000000000000000 ) ) ;
#31 = DIRECTION ( 'NONE',  ( 1.000000000000000000, 0.000000000000000000, 0.000000000000000000 ) ) ;
#32 = ADVANCED_FACE ( 'NONE', ( #135 ), #39, .T. ) ;
#33 = LOCAL_TIME ( 8, 30, 5.000000000000000000, #184 ) ;
#34 = FACE_OUTER_BOUND ( 'NONE', #150, .T. ) ;
#35 = VECTOR ( 'NONE', #270, 39.37007874015748854 ) ;
#36 =( GEOMETRIC_REPRESENTATION_CONTEXT ( 3 ) GLOBAL_UNCERTAINTY_ASSIGNED_CONTEXT ( ( #277 ) ) GLOBAL_UNIT_ASSIGNED_CONTEXT ( ( #65, #19, #105 ) ) REPRESENTATION_CONTEXT ( 'NONE', 'WORKASPACE' ) );
#37 = LOCAL_TIME ( 8, 30, 5.000000000000000000, #242 ) ;
#38 = CARTESIAN_POINT ( 'NONE',  ( 12.00000000000000178, 0.000000000000000000, 0.3025000000000134248 ) ) ;
#39 = CONICAL_SURFACE ( 'NONE', #49, 0.3125000000000000000, 0.7853981633974790322 ) ;
#40 = APPROVAL_STATUS ( 'not_yet_approved' ) ;
#41 = VECTOR ( 'NONE', #138, 39.37007874015748854 ) ;
#42 = LOCAL_TIME ( 8, 30, 5.000000000000000000, #7 ) ;
#43 = APPLICATION_PROTOCOL_DEFINITION ( 'international standard', 'config_control_design', 1994, #156 ) ;
#44 = CARTESIAN_POINT ( 'NONE',  ( -11.98999999999998067, 0.000000000000000000, 0.000000000000000000 ) ) ;
#45 = EDGE_LOOP ( 'NONE', ( #69, #14 ) ) ;
#46 = COORDINATED_UNIVERSAL_TIME_OFFSET ( 5, 0, .BEHIND. ) ;
#47 = ORIENTED_EDGE ( 'NONE', *, *, #251, .F. ) ;
#48 = PERSON_AND_ORGANIZATION ( #227, #145 ) ;
#49 = AXIS2_PLACEMENT_3D ( 'NONE', #120, #29, #266 ) ;
#50 = APPROVAL_ROLE ( '' ) ;
#51 = CC_DESIGN_SECURITY_CLASSIFICATION ( #130, ( #187 ) ) ;
#52 = VERTEX_POINT ( 'NONE', #249 ) ;
#53 = ORIENTED_EDGE ( 'NONE', *, *, #233, .F. ) ;
#54 = CARTESIAN_POINT ( 'NONE',  ( 12.00000000000000178, 0.000000000000000000, 0.000000000000000000 ) ) ;
#55 = DIRECTION ( 'NONE',  ( -1.000000000000000000, 0.000000000000000000, 0.000000000000000000 ) ) ;
#56 = DIRECTION ( 'NONE',  ( -1.000000000000000000, 0.000000000000000000, 0.000000000000000000 ) ) ;
#57 = CARTESIAN_POINT ( 'NONE',  ( -11.98999999999998067, 0.000000000000000000, -0.3125000000000000000 ) ) ;
#58 = APPLICATION_CONTEXT ( 'configuration controlled 3d designs of mechanical parts and assemblies' ) ;
#59 = DIRECTION ( 'NONE',  ( 1.000000000000000000, 0.000000000000000000, 0.000000000000000000 ) ) ;
#60 = PERSON_AND_ORGANIZATION_ROLE ( 'design_owner' ) ;
#61 = CARTESIAN_POINT ( 'NONE',  ( -12.00000000000000178, 0.000000000000000000, 0.000000000000000000 ) ) ;
#62 = CARTESIAN_POINT ( 'NONE',  ( 11.99000000000001265, 3.827021247335477694E-17, -0.3125000000000000000 ) ) ;
#63 = APPROVAL_PERSON_ORGANIZATION ( #196, #222, #50 ) ;
#64 = CLOSED_SHELL ( 'NONE', ( #32, #92, #193, #185, #90, #231, #66, #141 ) ) ;
#65 =( CONVERSION_BASED_UNIT ( 'INCH', #235 ) LENGTH_UNIT ( ) NAMED_UNIT ( #157 ) );
#66 = ADVANCED_FACE ( 'NONE', ( #79 ), #114, .T. ) ;
#67 = CC_DESIGN_PERSON_AND_ORGANIZATION_ASSIGNMENT ( #1, #153, ( #187 ) ) ;
#68 = DATE_TIME_ROLE ( 'classification_date' ) ;
#69 = ORIENTED_EDGE ( 'NONE', *, *, #164, .T. ) ;
#70 = ORIENTED_EDGE ( 'NONE', *, *, #177, .F. ) ;
#71 = APPROVAL_PERSON_ORGANIZATION ( #48, #4, #20 ) ;
#72 = CIRCLE ( 'NONE', #104, 0.3125000000000000000 ) ;
#73 = ORIENTED_EDGE ( 'NONE', *, *, #241, .F. ) ;
#74 = VERTEX_POINT ( 'NONE', #254 ) ;
#75 = CARTESIAN_POINT ( 'NONE',  ( 12.00000000000000178, 0.000000000000000000, 0.000000000000000000 ) ) ;
#76 = CARTESIAN_POINT ( 'NONE',  ( -12.00000000000000178, 0.000000000000000000, 0.000000000000000000 ) ) ;
#77 = DIRECTION ( 'NONE',  ( 0.7071067811865257013, 8.659560562355200331E-17, 0.7071067811865692221 ) ) ;
#78 = DIRECTION ( 'NONE',  ( 0.000000000000000000, 0.000000000000000000, -1.000000000000000000 ) ) ;
#79 = FACE_OUTER_BOUND ( 'NONE', #108, .T. ) ;
#80 = EDGE_CURVE ( 'NONE', #10, #5, #272, .T. ) ;
#81 = DATE_AND_TIME ( #273, #33 ) ;
#82 = LINE ( 'NONE', #17, #9 ) ;
#83 = CC_DESIGN_PERSON_AND_ORGANIZATION_ASSIGNMENT ( #256, #60, ( #201 ) ) ;
#84 = DIRECTION ( 'NONE',  ( -1.000000000000000000, -0.000000000000000000, -0.000000000000000000 ) ) ;
#85 = CARTESIAN_POINT ( 'NONE',  ( 0.000000000000000000, 0.000000000000000000, 0.000000000000000000 ) ) ;
#86 = APPROVAL_DATE_TIME ( #81, #148 ) ;
#87 = ORIENTED_EDGE ( 'NONE', *, *, #247, .T. ) ;
#88 = AXIS2_PLACEMENT_3D ( 'NONE', #180, #30, #116 ) ;
#89 = CALENDAR_DATE ( 2023, 7, 6 ) ;
#90 = ADVANCED_FACE ( 'NONE', ( #133 ), #161, .T. ) ;
#91 = EDGE_LOOP ( 'NONE', ( #152, #221, #197, #70 ) ) ;
#92 = ADVANCED_FACE ( 'NONE', ( #15 ), #149, .T. ) ;
#93 = ORIENTED_EDGE ( 'NONE', *, *, #16, .F. ) ;
#94 = ORIENTED_EDGE ( 'NONE', *, *, #233, .T. ) ;
#95 = CYLINDRICAL_SURFACE ( 'NONE', #144, 0.3125000000000000000 ) ;
#96 = DIRECTION ( 'NONE',  ( -1.000000000000000000, 0.000000000000000000, 0.000000000000000000 ) ) ;
#97 = CARTESIAN_POINT ( 'NONE',  ( 12.00000000000000178, 0.000000000000000000, 0.000000000000000000 ) ) ;
#98 = MANIFOLD_SOLID_BREP ( 'Chamfer1', #64 ) ;
#99 = EDGE_CURVE ( 'NONE', #240, #74, #183, .T. ) ;
#100 = CARTESIAN_POINT ( 'NONE',  ( -11.98999999999998067, 3.827021247335478926E-17, 0.3125000000000000000 ) ) ;
#101 = EDGE_CURVE ( 'NONE', #131, #74, #229, .T. ) ;
#102 = DIRECTION ( 'NONE',  ( 1.000000000000000000, -0.000000000000000000, -0.000000000000000000 ) ) ;
#103 = AXIS2_PLACEMENT_3D ( 'NONE', #209, #202, #253 ) ;
#104 = AXIS2_PLACEMENT_3D ( 'NONE', #44, #102, #234 ) ;
#105 =( NAMED_UNIT ( * ) SI_UNIT ( $, .STERADIAN. ) SOLID_ANGLE_UNIT ( ) );
#106 = PRODUCT_DEFINITION ( 'UNKNOWN', '', #187, #134 ) ;
#107 = VERTEX_POINT ( 'NONE', #162 ) ;
#108 = EDGE_LOOP ( 'NONE', ( #73, #25, #27, #154 ) ) ;
#109 = CALENDAR_DATE ( 2023, 7, 6 ) ;
#110 = CC_DESIGN_PERSON_AND_ORGANIZATION_ASSIGNMENT ( #21, #127, ( #187 ) ) ;
#111 = ORIENTED_EDGE ( 'NONE', *, *, #241, .T. ) ;
#112 = EDGE_CURVE ( 'NONE', #158, #52, #205, .T. ) ;
#113 = ORIENTED_EDGE ( 'NONE', *, *, #136, .F. ) ;
#114 = CONICAL_SURFACE ( 'NONE', #257, 0.3025000000000134248, 0.7853981633973697862 ) ;
#115 = CARTESIAN_POINT ( 'NONE',  ( 11.99000000000001265, 0.000000000000000000, 0.000000000000000000 ) ) ;
#116 = DIRECTION ( 'NONE',  ( 0.000000000000000000, 0.000000000000000000, -1.000000000000000000 ) ) ;
#117 = CARTESIAN_POINT ( 'NONE',  ( 12.00000000000000178, 0.000000000000000000, 0.000000000000000000 ) ) ;
#118 = CYLINDRICAL_SURFACE ( 'NONE', #188, 0.3125000000000000000 ) ;
#119 = CC_DESIGN_PERSON_AND_ORGANIZATION_ASSIGNMENT ( #26, #174, ( #130 ) ) ;
#120 = CARTESIAN_POINT ( 'NONE',  ( -11.98999999999998067, 0.000000000000000000, 0.000000000000000000 ) ) ;
#121 = CONICAL_SURFACE ( 'NONE', #103, 0.3125000000000000000, 0.7853981633974790322 ) ;
#122 = DIRECTION ( 'NONE',  ( 0.000000000000000000, 0.000000000000000000, 1.000000000000000000 ) ) ;
#123 = DIRECTION ( 'NONE',  ( 1.000000000000000000, 0.000000000000000000, 0.000000000000000000 ) ) ;
#124 = DIRECTION ( 'NONE',  ( -0.7071067811866029729, 8.659560562354252466E-17, -0.7071067811864919506 ) ) ;
#125 = CALENDAR_DATE ( 2023, 7, 6 ) ;
#126 = ORIENTED_EDGE ( 'NONE', *, *, #200, .T. ) ;
#127 = PERSON_AND_ORGANIZATION_ROLE ( 'design_supplier' ) ;
#128 = CC_DESIGN_PERSON_AND_ORGANIZATION_ASSIGNMENT ( #191, #217, ( #106 ) ) ;
#129 = CIRCLE ( 'NONE', #167, 0.3024999999999784528 ) ;
#130 = SECURITY_CLASSIFICATION ( '', '', #171 ) ;
#131 = VERTEX_POINT ( 'NONE', #203 ) ;
#132 = APPROVAL_STATUS ( 'not_yet_approved' ) ;
#133 = FACE_OUTER_BOUND ( 'NONE', #45, .T. ) ;
#134 = DESIGN_CONTEXT ( 'detailed design', #58, 'design' ) ;
#135 = FACE_OUTER_BOUND ( 'NONE', #91, .T. ) ;
#136 = EDGE_CURVE ( 'NONE', #10, #158, #12, .T. ) ;
#137 = CARTESIAN_POINT ( 'NONE',  ( -11.98999999999998067, 0.000000000000000000, 0.3125000000000000000 ) ) ;
#138 = DIRECTION ( 'NONE',  ( 0.7071067811865257013, 0.000000000000000000, -0.7071067811865692221 ) ) ;
#139 = DIRECTION ( 'NONE',  ( 0.000000000000000000, 0.000000000000000000, -1.000000000000000000 ) ) ;
#140 = APPLICATION_PROTOCOL_DEFINITION ( 'international standard', 'config_control_design', 1994, #58 ) ;
#141 = ADVANCED_FACE ( 'NONE', ( #267 ), #121, .T. ) ;
#142 =( LENGTH_UNIT ( ) NAMED_UNIT ( * ) SI_UNIT ( $, .METRE. ) );
#143 = CIRCLE ( 'NONE', #160, 0.3125000000000000000 ) ;
#144 = AXIS2_PLACEMENT_3D ( 'NONE', #186, #274, #122 ) ;
#145 = ORGANIZATION ( 'UNSPECIFIED', 'UNSPECIFIED', '' ) ;
#146 = DIRECTION ( 'NONE',  ( 0.000000000000000000, 0.000000000000000000, -1.000000000000000000 ) ) ;
#147 = DIRECTION ( 'NONE',  ( 0.000000000000000000, 0.000000000000000000, 1.000000000000000000 ) ) ;
#148 = APPROVAL ( #40, 'UNSPECIFIED' ) ;
#149 = CONICAL_SURFACE ( 'NONE', #268, 0.3025000000000134248, 0.7853981633973697862 ) ;
#150 = EDGE_LOOP ( 'NONE', ( #53, #243, #3, #155 ) ) ;
#151 = DATE_AND_TIME ( #89, #42 ) ;
#152 = ORIENTED_EDGE ( 'NONE', *, *, #80, .F. ) ;
#153 = PERSON_AND_ORGANIZATION_ROLE ( 'creator' ) ;
#154 = ORIENTED_EDGE ( 'NONE', *, *, #99, .F. ) ;
#155 = ORIENTED_EDGE ( 'NONE', *, *, #112, .T. ) ;
#156 = APPLICATION_CONTEXT ( 'configuration controlled 3d designs of mechanical parts and assemblies' ) ;
#157 = DIMENSIONAL_EXPONENTS ( 1.000000000000000000, 0.000000000000000000, 0.000000000000000000, 0.000000000000000000, 0.000000000000000000, 0.000000000000000000, 0.000000000000000000 ) ;
#158 = VERTEX_POINT ( 'NONE', #137 ) ;
#159 = DIRECTION ( 'NONE',  ( 1.000000000000000000, 0.000000000000000000, 0.000000000000000000 ) ) ;
#160 = AXIS2_PLACEMENT_3D ( 'NONE', #204, #96, #11 ) ;
#161 = PLANE ( 'NONE',  #211 ) ;
#162 = CARTESIAN_POINT ( 'NONE',  ( 12.00000000000000178, 3.765788907378193369E-17, -0.3025000000000134248 ) ) ;
#163 = FACE_OUTER_BOUND ( 'NONE', #263, .T. ) ;
#164 = EDGE_CURVE ( 'NONE', #131, #107, #261, .T. ) ;
#165 = FACE_OUTER_BOUND ( 'NONE', #218, .T. ) ;
#166 = PLANE ( 'NONE',  #216 ) ;
#167 = AXIS2_PLACEMENT_3D ( 'NONE', #260, #169, #146 ) ;
#168 = LOCAL_TIME ( 8, 30, 5.000000000000000000, #170 ) ;
#169 = DIRECTION ( 'NONE',  ( -1.000000000000000000, -0.000000000000000000, -0.000000000000000000 ) ) ;
#170 = COORDINATED_UNIVERSAL_TIME_OFFSET ( 5, 0, .BEHIND. ) ;
#171 = SECURITY_CLASSIFICATION_LEVEL ( 'unclassified' ) ;
#172 = DATE_TIME_ROLE ( 'creation_date' ) ;
#173 = ORIENTED_EDGE ( 'NONE', *, *, #176, .F. ) ;
#174 = PERSON_AND_ORGANIZATION_ROLE ( 'classification_officer' ) ;
#175 = ORIENTED_EDGE ( 'NONE', *, *, #112, .F. ) ;
#176 = EDGE_CURVE ( 'NONE', #74, #240, #143, .T. ) ;
#177 = EDGE_CURVE ( 'NONE', #5, #52, #182, .T. ) ;
#178 = DIRECTION ( 'NONE',  ( 0.000000000000000000, 0.000000000000000000, 1.000000000000000000 ) ) ;
#179 = CARTESIAN_POINT ( 'NONE',  ( -12.00000000000000178, 3.765788907377979514E-17, 0.3024999999999784528 ) ) ;
#180 = CARTESIAN_POINT ( 'NONE',  ( -11.98999999999998067, 0.000000000000000000, 0.000000000000000000 ) ) ;
#181 = DIRECTION ( 'NONE',  ( 0.000000000000000000, 0.000000000000000000, 1.000000000000000000 ) ) ;
#182 = LINE ( 'NONE', #57, #41 ) ;
#183 = CIRCLE ( 'NONE', #225, 0.3125000000000000000 ) ;
#184 = COORDINATED_UNIVERSAL_TIME_OFFSET ( 5, 0, .BEHIND. ) ;
#185 = ADVANCED_FACE ( 'NONE', ( #34 ), #118, .T. ) ;
#186 = CARTESIAN_POINT ( 'NONE',  ( 12.00000000000000178, 0.000000000000000000, 0.000000000000000000 ) ) ;
#187 = PRODUCT_DEFINITION_FORMATION_WITH_SPECIFIED_SOURCE ( 'ANY', '', #201, .NOT_KNOWN. ) ;
#188 = AXIS2_PLACEMENT_3D ( 'NONE', #271, #207, #181 ) ;
#189 = DIRECTION ( 'NONE',  ( -1.000000000000000000, -0.000000000000000000, -0.000000000000000000 ) ) ;
#190 = SHAPE_DEFINITION_REPRESENTATION ( #6, #239 ) ;
#191 = PERSON_AND_ORGANIZATION ( #227, #145 ) ;
#192 = ORIENTED_EDGE ( 'NONE', *, *, #80, .T. ) ;
#193 = ADVANCED_FACE ( 'NONE', ( #163 ), #95, .T. ) ;
#194 = APPROVAL_DATE_TIME ( #262, #222 ) ;
#195 = ORIENTED_EDGE ( 'NONE', *, *, #247, .F. ) ;
#196 = PERSON_AND_ORGANIZATION ( #227, #145 ) ;
#197 = ORIENTED_EDGE ( 'NONE', *, *, #200, .F. ) ;
#198 = CC_DESIGN_DATE_AND_TIME_ASSIGNMENT ( #223, #68, ( #130 ) ) ;
#199 = EDGE_LOOP ( 'NONE', ( #93, #111, #173, #22 ) ) ;
#200 = EDGE_CURVE ( 'NONE', #52, #158, #72, .T. ) ;
#201 = PRODUCT ( 'NIL10-024.000-SL', 'NIL10-024.000-SL', '', ( #214 ) ) ;
#202 = DIRECTION ( 'NONE',  ( 1.000000000000000000, -0.000000000000000000, -0.000000000000000000 ) ) ;
#203 = CARTESIAN_POINT ( 'NONE',  ( 12.00000000000000178, 0.000000000000000000, 0.3025000000000134248 ) ) ;
#204 = CARTESIAN_POINT ( 'NONE',  ( 11.99000000000001265, 0.000000000000000000, 0.000000000000000000 ) ) ;
#205 = CIRCLE ( 'NONE', #88, 0.3125000000000000000 ) ;
#206 = VECTOR ( 'NONE', #84, 39.37007874015748143 ) ;
#207 = DIRECTION ( 'NONE',  ( -1.000000000000000000, -0.000000000000000000, -0.000000000000000000 ) ) ;
#208 = CIRCLE ( 'NONE', #246, 0.3025000000000134248 ) ;
#209 = CARTESIAN_POINT ( 'NONE',  ( -11.98999999999998067, 0.000000000000000000, 0.000000000000000000 ) ) ;
#210 = APPROVAL_ROLE ( '' ) ;
#211 = AXIS2_PLACEMENT_3D ( 'NONE', #97, #159, #228 ) ;
#212 = LINE ( 'NONE', #18, #258 ) ;
#213 = LINE ( 'NONE', #215, #206 ) ;
#214 = MECHANICAL_CONTEXT ( 'NONE', #156, 'mechanical' ) ;
#215 = CARTESIAN_POINT ( 'NONE',  ( 12.00000000000000178, 0.000000000000000000, 0.3125000000000000000 ) ) ;
#216 = AXIS2_PLACEMENT_3D ( 'NONE', #61, #123, #275 ) ;
#217 = PERSON_AND_ORGANIZATION_ROLE ( 'creator' ) ;
#218 = EDGE_LOOP ( 'NONE', ( #87, #192 ) ) ;
#219 = APPROVAL_DATE_TIME ( #151, #4 ) ;
#220 = AXIS2_PLACEMENT_3D ( 'NONE', #85, #147, #236 ) ;
#221 = ORIENTED_EDGE ( 'NONE', *, *, #136, .T. ) ;
#222 = APPROVAL ( #237, 'UNSPECIFIED' ) ;
#223 = DATE_AND_TIME ( #125, #37 ) ;
#224 = DIRECTION ( 'NONE',  ( 0.000000000000000000, 0.000000000000000000, -1.000000000000000000 ) ) ;
#225 = AXIS2_PLACEMENT_3D ( 'NONE', #115, #230, #269 ) ;
#226 = DIRECTION ( 'NONE',  ( 0.000000000000000000, 0.000000000000000000, 1.000000000000000000 ) ) ;
#227 = PERSON ( 'UNSPECIFIED', 'UNSPECIFIED', 'UNSPECIFIED', ('UNSPECIFIED'), ('UNSPECIFIED'), ('UNSPECIFIED') ) ;
#228 = DIRECTION ( 'NONE',  ( 0.000000000000000000, 0.000000000000000000, -1.000000000000000000 ) ) ;
#229 = LINE ( 'NONE', #38, #35 ) ;
#230 = DIRECTION ( 'NONE',  ( -1.000000000000000000, 0.000000000000000000, 0.000000000000000000 ) ) ;
#231 = ADVANCED_FACE ( 'NONE', ( #165 ), #166, .F. ) ;
#232 = PERSON_AND_ORGANIZATION ( #227, #145 ) ;
#233 = EDGE_CURVE ( 'NONE', #240, #52, #212, .T. ) ;
#234 = DIRECTION ( 'NONE',  ( 0.000000000000000000, 0.000000000000000000, -1.000000000000000000 ) ) ;
#235 = LENGTH_MEASURE_WITH_UNIT ( LENGTH_MEASURE( 0.02539999999999999897 ), #142 );
#236 = DIRECTION ( 'NONE',  ( 1.000000000000000000, 0.000000000000000000, 0.000000000000000000 ) ) ;
#237 = APPROVAL_STATUS ( 'not_yet_approved' ) ;
#238 = DATE_AND_TIME ( #24, #168 ) ;
#239 = ADVANCED_BREP_SHAPE_REPRESENTATION ( 'NIL10-024.000-SL', ( #98, #220 ), #36 ) ;
#240 = VERTEX_POINT ( 'NONE', #62 ) ;
#241 = EDGE_CURVE ( 'NONE', #107, #240, #82, .T. ) ;
#242 = COORDINATED_UNIVERSAL_TIME_OFFSET ( 5, 0, .BEHIND. ) ;
#243 = ORIENTED_EDGE ( 'NONE', *, *, #99, .T. ) ;
#244 = ORIENTED_EDGE ( 'NONE', *, *, #177, .T. ) ;
#245 = EDGE_LOOP ( 'NONE', ( #113, #195, #244, #175 ) ) ;
#246 = AXIS2_PLACEMENT_3D ( 'NONE', #252, #31, #78 ) ;
#247 = EDGE_CURVE ( 'NONE', #5, #10, #129, .T. ) ;
#248 = CARTESIAN_POINT ( 'NONE',  ( -12.00000000000000178, 0.000000000000000000, -0.3024999999999784528 ) ) ;
#249 = CARTESIAN_POINT ( 'NONE',  ( -11.98999999999998067, 3.827021247335477694E-17, -0.3125000000000000000 ) ) ;
#250 = AXIS2_PLACEMENT_3D ( 'NONE', #76, #13, #224 ) ;
#251 = EDGE_CURVE ( 'NONE', #74, #158, #213, .T. ) ;
#252 = CARTESIAN_POINT ( 'NONE',  ( 12.00000000000000178, 0.000000000000000000, 0.000000000000000000 ) ) ;
#253 = DIRECTION ( 'NONE',  ( 0.000000000000000000, 0.000000000000000000, -1.000000000000000000 ) ) ;
#254 = CARTESIAN_POINT ( 'NONE',  ( 11.99000000000001265, 0.000000000000000000, 0.3125000000000000000 ) ) ;
#255 = CC_DESIGN_DATE_AND_TIME_ASSIGNMENT ( #238, #172, ( #106 ) ) ;
#256 = PERSON_AND_ORGANIZATION ( #227, #145 ) ;
#257 = AXIS2_PLACEMENT_3D ( 'NONE', #54, #56, #226 ) ;
#258 = VECTOR ( 'NONE', #189, 39.37007874015748143 ) ;
#259 = CC_DESIGN_APPROVAL ( #222, ( #187 ) ) ;
#260 = CARTESIAN_POINT ( 'NONE',  ( -12.00000000000000178, 0.000000000000000000, 0.000000000000000000 ) ) ;
#261 = CIRCLE ( 'NONE', #23, 0.3025000000000134248 ) ;
#262 = DATE_AND_TIME ( #109, #2 ) ;
#263 = EDGE_LOOP ( 'NONE', ( #8, #94, #126, #47 ) ) ;
#264 = CC_DESIGN_APPROVAL ( #4, ( #130 ) ) ;
#265 = CC_DESIGN_APPROVAL ( #148, ( #106 ) ) ;
#266 = DIRECTION ( 'NONE',  ( 0.000000000000000000, 0.000000000000000000, -1.000000000000000000 ) ) ;
#267 = FACE_OUTER_BOUND ( 'NONE', #245, .T. ) ;
#268 = AXIS2_PLACEMENT_3D ( 'NONE', #75, #55, #178 ) ;
#269 = DIRECTION ( 'NONE',  ( 0.000000000000000000, 0.000000000000000000, -1.000000000000000000 ) ) ;
#270 = DIRECTION ( 'NONE',  ( -0.7071067811866029729, 0.000000000000000000, 0.7071067811864919506 ) ) ;
#271 = CARTESIAN_POINT ( 'NONE',  ( 12.00000000000000178, 0.000000000000000000, 0.000000000000000000 ) ) ;
#272 = CIRCLE ( 'NONE', #250, 0.3024999999999784528 ) ;
#273 = CALENDAR_DATE ( 2023, 7, 6 ) ;
#274 = DIRECTION ( 'NONE',  ( -1.000000000000000000, -0.000000000000000000, -0.000000000000000000 ) ) ;
#275 = DIRECTION ( 'NONE',  ( 0.000000000000000000, 0.000000000000000000, -1.000000000000000000 ) ) ;
#276 = APPROVAL_PERSON_ORGANIZATION ( #232, #148, #210 ) ;
#277 = UNCERTAINTY_MEASURE_WITH_UNIT (LENGTH_MEASURE( 1.000000000000000082E-05 ), #65, 'distance_accuracy_value', 'NONE');
#278 = VECTOR ( 'NONE', #77, 39.37007874015748854 ) ;
ENDSEC;
END-ISO-10303-21;
