ISO-10303-21;
HEADER;
FILE_DESCRIPTION (( 'STEP AP203' ),
    '1' );
FILE_NAME ('NIL10-012.000-SL.step',
    '2023-06-07T12:29:58',
    ( '' ),
    ( '' ),
    'SwSTEP 2.0',
    'SolidWorks 2021',
    '' );
FILE_SCHEMA (( 'CONFIG_CONTROL_DESIGN' ));
ENDSEC;

DATA;
#1 = VECTOR ( 'NONE', #176, 39.37007874015748143 ) ;
#2 = DIRECTION ( 'NONE',  ( 0.000000000000000000, 0.000000000000000000, -1.000000000000000000 ) ) ;
#3 = DIRECTION ( 'NONE',  ( 0.000000000000000000, 0.000000000000000000, 1.000000000000000000 ) ) ;
#4 = DIRECTION ( 'NONE',  ( 1.000000000000000000, 0.000000000000000000, 0.000000000000000000 ) ) ;
#5 = DIRECTION ( 'NONE',  ( 0.000000000000000000, 0.000000000000000000, -1.000000000000000000 ) ) ;
#6 = EDGE_CURVE ( 'NONE', #233, #38, #225, .T. ) ;
#7 = CALENDAR_DATE ( 2023, 7, 6 ) ;
#8 = LOCAL_TIME ( 8, 29, 58.00000000000000000, #57 ) ;
#9 = DATE_AND_TIME ( #7, #262 ) ;
#10 = AXIS2_PLACEMENT_3D ( 'NONE', #230, #79, #2 ) ;
#11 = VERTEX_POINT ( 'NONE', #155 ) ;
#12 = CC_DESIGN_DATE_AND_TIME_ASSIGNMENT ( #197, #158, ( #34 ) ) ;
#13 = DIRECTION ( 'NONE',  ( 1.000000000000000000, -0.000000000000000000, -0.000000000000000000 ) ) ;
#14 = EDGE_LOOP ( 'NONE', ( #229, #189, #122, #185 ) ) ;
#15 = AXIS2_PLACEMENT_3D ( 'NONE', #111, #93, #47 ) ;
#16 = CARTESIAN_POINT ( 'NONE',  ( -6.000000000000000888, 0.000000000000000000, 0.000000000000000000 ) ) ;
#17 = PRODUCT_DEFINITION ( 'UNKNOWN', '', #126, #25 ) ;
#18 = ORIENTED_EDGE ( 'NONE', *, *, #270, .F. ) ;
#19 = AXIS2_PLACEMENT_3D ( 'NONE', #22, #193, #132 ) ;
#20 = LOCAL_TIME ( 8, 29, 58.00000000000000000, #265 ) ;
#21 = CARTESIAN_POINT ( 'NONE',  ( 6.000000000000000888, 3.704556567420761133E-17, -0.3025000000000014344 ) ) ;
#22 = CARTESIAN_POINT ( 'NONE',  ( -6.000000000000000888, 0.000000000000000000, 0.000000000000000000 ) ) ;
#23 = CARTESIAN_POINT ( 'NONE',  ( 6.000000000000000888, 0.000000000000000000, 0.000000000000000000 ) ) ;
#24 = CC_DESIGN_APPROVAL ( #212, ( #17 ) ) ;
#25 = DESIGN_CONTEXT ( 'detailed design', #248, 'design' ) ;
#26 = PERSON_AND_ORGANIZATION_ROLE ( 'design_supplier' ) ;
#27 = FACE_OUTER_BOUND ( 'NONE', #82, .T. ) ;
#28 = DIRECTION ( 'NONE',  ( 1.000000000000000000, -0.000000000000000000, -0.000000000000000000 ) ) ;
#29 = COORDINATED_UNIVERSAL_TIME_OFFSET ( 5, 0, .BEHIND. ) ;
#30 = AXIS2_PLACEMENT_3D ( 'NONE', #139, #157, #114 ) ;
#31 = CALENDAR_DATE ( 2023, 7, 6 ) ;
#32 = APPLICATION_PROTOCOL_DEFINITION ( 'international standard', 'config_control_design', 1994, #103 ) ;
#33 = EDGE_CURVE ( 'NONE', #129, #167, #252, .T. ) ;
#34 = SECURITY_CLASSIFICATION ( '', '', #140 ) ;
#35 = EDGE_LOOP ( 'NONE', ( #64, #40, #254, #127 ) ) ;
#36 = CYLINDRICAL_SURFACE ( 'NONE', #243, 0.3125000000000000000 ) ;
#37 = ORIENTED_EDGE ( 'NONE', *, *, #196, .F. ) ;
#38 = VERTEX_POINT ( 'NONE', #218 ) ;
#39 = CONICAL_SURFACE ( 'NONE', #137, 0.3025000000000014344, 0.7853981633974790322 ) ;
#40 = ORIENTED_EDGE ( 'NONE', *, *, #33, .F. ) ;
#41 = PRODUCT_RELATED_PRODUCT_CATEGORY ( 'detail', '', ( #256 ) ) ;
#42 = VERTEX_POINT ( 'NONE', #74 ) ;
#43 =( NAMED_UNIT ( * ) SI_UNIT ( $, .STERADIAN. ) SOLID_ANGLE_UNIT ( ) );
#44 = AXIS2_PLACEMENT_3D ( 'NONE', #149, #13, #90 ) ;
#45 = FACE_OUTER_BOUND ( 'NONE', #235, .T. ) ;
#46 = CARTESIAN_POINT ( 'NONE',  ( 5.990000000000002878, 0.000000000000000000, 0.000000000000000000 ) ) ;
#47 = DIRECTION ( 'NONE',  ( 0.000000000000000000, 0.000000000000000000, 1.000000000000000000 ) ) ;
#48 = PERSON_AND_ORGANIZATION ( #169, #116 ) ;
#49 = LINE ( 'NONE', #238, #109 ) ;
#50 = CALENDAR_DATE ( 2023, 7, 6 ) ;
#51 = DIRECTION ( 'NONE',  ( 0.000000000000000000, 0.000000000000000000, -1.000000000000000000 ) ) ;
#52 = APPROVAL_STATUS ( 'not_yet_approved' ) ;
#53 = ADVANCED_FACE ( 'NONE', ( #27 ), #78, .T. ) ;
#54 = UNCERTAINTY_MEASURE_WITH_UNIT (LENGTH_MEASURE( 1.000000000000000082E-05 ), #277, 'distance_accuracy_value', 'NONE');
#55 = PERSON_AND_ORGANIZATION ( #169, #116 ) ;
#56 = CIRCLE ( 'NONE', #10, 0.3125000000000000000 ) ;
#57 = COORDINATED_UNIVERSAL_TIME_OFFSET ( 5, 0, .BEHIND. ) ;
#58 = ADVANCED_FACE ( 'NONE', ( #244 ), #136, .T. ) ;
#59 = ORIENTED_EDGE ( 'NONE', *, *, #221, .F. ) ;
#60 = AXIS2_PLACEMENT_3D ( 'NONE', #16, #251, #87 ) ;
#61 = CARTESIAN_POINT ( 'NONE',  ( -5.989999999999986002, 3.827021247335477694E-17, -0.3125000000000000000 ) ) ;
#62 = ORIENTED_EDGE ( 'NONE', *, *, #204, .T. ) ;
#63 = DIRECTION ( 'NONE',  ( 0.000000000000000000, 0.000000000000000000, 1.000000000000000000 ) ) ;
#64 = ORIENTED_EDGE ( 'NONE', *, *, #178, .F. ) ;
#65 = EDGE_LOOP ( 'NONE', ( #37, #146, #62, #80 ) ) ;
#66 = AXIS2_PLACEMENT_3D ( 'NONE', #124, #208, #5 ) ;
#67 = ORIENTED_EDGE ( 'NONE', *, *, #119, .T. ) ;
#68 = DIRECTION ( 'NONE',  ( -1.000000000000000000, -0.000000000000000000, -0.000000000000000000 ) ) ;
#69 = PRODUCT_DEFINITION_SHAPE ( 'NONE', 'NONE',  #17 ) ;
#70 =( LENGTH_UNIT ( ) NAMED_UNIT ( * ) SI_UNIT ( $, .METRE. ) );
#71 = CARTESIAN_POINT ( 'NONE',  ( 6.000000000000000888, 3.765788907378120030E-17, -0.3025000000000014344 ) ) ;
#72 = EDGE_CURVE ( 'NONE', #273, #165, #49, .T. ) ;
#73 = FACE_OUTER_BOUND ( 'NONE', #65, .T. ) ;
#74 = CARTESIAN_POINT ( 'NONE',  ( -5.989999999999986002, 0.000000000000000000, 0.3125000000000000000 ) ) ;
#75 = PERSON_AND_ORGANIZATION ( #169, #116 ) ;
#76 = PERSON_AND_ORGANIZATION ( #169, #116 ) ;
#77 = CIRCLE ( 'NONE', #30, 0.3125000000000000000 ) ;
#78 = CONICAL_SURFACE ( 'NONE', #98, 0.3025000000000014344, 0.7853981633974790322 ) ;
#79 = DIRECTION ( 'NONE',  ( 1.000000000000000000, -0.000000000000000000, -0.000000000000000000 ) ) ;
#80 = ORIENTED_EDGE ( 'NONE', *, *, #119, .F. ) ;
#81 = ORIENTED_EDGE ( 'NONE', *, *, #221, .T. ) ;
#82 = EDGE_LOOP ( 'NONE', ( #102, #99, #170, #150 ) ) ;
#83 = EDGE_CURVE ( 'NONE', #42, #165, #105, .T. ) ;
#84 = AXIS2_PLACEMENT_3D ( 'NONE', #260, #88, #106 ) ;
#85 = DIRECTION ( 'NONE',  ( 0.000000000000000000, 0.000000000000000000, 1.000000000000000000 ) ) ;
#86 = CC_DESIGN_PERSON_AND_ORGANIZATION_ASSIGNMENT ( #222, #110, ( #34 ) ) ;
#87 = DIRECTION ( 'NONE',  ( 0.000000000000000000, 0.000000000000000000, -1.000000000000000000 ) ) ;
#88 = DIRECTION ( 'NONE',  ( 1.000000000000000000, 0.000000000000000000, 0.000000000000000000 ) ) ;
#89 = VECTOR ( 'NONE', #125, 39.37007874015748143 ) ;
#90 = DIRECTION ( 'NONE',  ( 0.000000000000000000, 0.000000000000000000, -1.000000000000000000 ) ) ;
#91 = CARTESIAN_POINT ( 'NONE',  ( 6.000000000000000888, 0.000000000000000000, 0.3125000000000000000 ) ) ;
#92 = PERSON_AND_ORGANIZATION ( #169, #116 ) ;
#93 = DIRECTION ( 'NONE',  ( -1.000000000000000000, -0.000000000000000000, -0.000000000000000000 ) ) ;
#94 = ADVANCED_FACE ( 'NONE', ( #216 ), #180, .T. ) ;
#95 = AXIS2_PLACEMENT_3D ( 'NONE', #46, #175, #215 ) ;
#96 = APPROVAL_DATE_TIME ( #200, #164 ) ;
#97 = CALENDAR_DATE ( 2023, 7, 6 ) ;
#98 = AXIS2_PLACEMENT_3D ( 'NONE', #108, #159, #85 ) ;
#99 = ORIENTED_EDGE ( 'NONE', *, *, #196, .T. ) ;
#100 = CARTESIAN_POINT ( 'NONE',  ( 5.990000000000002878, 3.827021247335477694E-17, -0.3125000000000000000 ) ) ;
#101 = APPROVAL_PERSON_ORGANIZATION ( #202, #212, #269 ) ;
#102 = ORIENTED_EDGE ( 'NONE', *, *, #6, .F. ) ;
#103 = APPLICATION_CONTEXT ( 'configuration controlled 3d designs of mechanical parts and assemblies' ) ;
#104 = ORIENTED_EDGE ( 'NONE', *, *, #178, .T. ) ;
#105 = CIRCLE ( 'NONE', #255, 0.3125000000000000000 ) ;
#106 = DIRECTION ( 'NONE',  ( 0.000000000000000000, 0.000000000000000000, -1.000000000000000000 ) ) ;
#107 = PLANE ( 'NONE',  #19 ) ;
#108 = CARTESIAN_POINT ( 'NONE',  ( 6.000000000000000888, 0.000000000000000000, 0.000000000000000000 ) ) ;
#109 = VECTOR ( 'NONE', #134, 39.37007874015748143 ) ;
#110 = PERSON_AND_ORGANIZATION_ROLE ( 'classification_officer' ) ;
#111 = CARTESIAN_POINT ( 'NONE',  ( 6.000000000000000888, 0.000000000000000000, 0.000000000000000000 ) ) ;
#112 = CC_DESIGN_PERSON_AND_ORGANIZATION_ASSIGNMENT ( #55, #183, ( #126 ) ) ;
#113 = SHAPE_DEFINITION_REPRESENTATION ( #69, #201 ) ;
#114 = DIRECTION ( 'NONE',  ( 0.000000000000000000, 0.000000000000000000, -1.000000000000000000 ) ) ;
#115 = DATE_TIME_ROLE ( 'creation_date' ) ;
#116 = ORGANIZATION ( 'UNSPECIFIED', 'UNSPECIFIED', '' ) ;
#117 = MECHANICAL_CONTEXT ( 'NONE', #103, 'mechanical' ) ;
#118 = APPROVAL_DATE_TIME ( #9, #212 ) ;
#119 = EDGE_CURVE ( 'NONE', #273, #11, #77, .T. ) ;
#120 = CIRCLE ( 'NONE', #95, 0.3125000000000000000 ) ;
#121 = CC_DESIGN_APPROVAL ( #164, ( #126 ) ) ;
#122 = ORIENTED_EDGE ( 'NONE', *, *, #182, .T. ) ;
#123 = CARTESIAN_POINT ( 'NONE',  ( -6.000000000000000888, 3.765788907378032516E-17, 0.3024999999999872236 ) ) ;
#124 = CARTESIAN_POINT ( 'NONE',  ( 6.000000000000000888, 0.000000000000000000, 0.000000000000000000 ) ) ;
#125 = DIRECTION ( 'NONE',  ( 0.7071067811866030839, 0.000000000000000000, -0.7071067811864919506 ) ) ;
#126 = PRODUCT_DEFINITION_FORMATION_WITH_SPECIFIED_SOURCE ( 'ANY', '', #256, .NOT_KNOWN. ) ;
#127 = ORIENTED_EDGE ( 'NONE', *, *, #83, .F. ) ;
#128 = CC_DESIGN_PERSON_AND_ORGANIZATION_ASSIGNMENT ( #92, #181, ( #256 ) ) ;
#129 = VERTEX_POINT ( 'NONE', #199 ) ;
#130 = VECTOR ( 'NONE', #264, 39.37007874015748143 ) ;
#131 = ADVANCED_FACE ( 'NONE', ( #73 ), #39, .T. ) ;
#132 = DIRECTION ( 'NONE',  ( 0.000000000000000000, 0.000000000000000000, -1.000000000000000000 ) ) ;
#133 = CARTESIAN_POINT ( 'NONE',  ( 6.000000000000000888, 0.000000000000000000, 0.000000000000000000 ) ) ;
#134 = DIRECTION ( 'NONE',  ( -1.000000000000000000, -0.000000000000000000, -0.000000000000000000 ) ) ;
#135 = APPROVAL_STATUS ( 'not_yet_approved' ) ;
#136 = CYLINDRICAL_SURFACE ( 'NONE', #15, 0.3125000000000000000 ) ;
#137 = AXIS2_PLACEMENT_3D ( 'NONE', #195, #177, #3 ) ;
#138 = DATE_AND_TIME ( #50, #8 ) ;
#139 = CARTESIAN_POINT ( 'NONE',  ( 5.990000000000002878, 0.000000000000000000, 0.000000000000000000 ) ) ;
#140 = SECURITY_CLASSIFICATION_LEVEL ( 'unclassified' ) ;
#141 = CLOSED_SHELL ( 'NONE', ( #186, #53, #58, #228, #94, #174, #131, #209 ) ) ;
#142 = EDGE_CURVE ( 'NONE', #11, #42, #172, .T. ) ;
#143 = APPLICATION_PROTOCOL_DEFINITION ( 'international standard', 'config_control_design', 1994, #248 ) ;
#144 = MANIFOLD_SOLID_BREP ( 'Chamfer1', #141 ) ;
#145 = EDGE_CURVE ( 'NONE', #38, #233, #267, .T. ) ;
#146 = ORIENTED_EDGE ( 'NONE', *, *, #145, .F. ) ;
#147 = DIRECTION ( 'NONE',  ( -0.7071067811865257013, 8.659560562355197866E-17, -0.7071067811865691111 ) ) ;
#148 = ORIENTED_EDGE ( 'NONE', *, *, #83, .T. ) ;
#149 = CARTESIAN_POINT ( 'NONE',  ( -5.989999999999986002, 0.000000000000000000, 0.000000000000000000 ) ) ;
#150 = ORIENTED_EDGE ( 'NONE', *, *, #204, .F. ) ;
#151 = AXIS2_PLACEMENT_3D ( 'NONE', #23, #276, #51 ) ;
#152 = LINE ( 'NONE', #236, #171 ) ;
#153 = AXIS2_PLACEMENT_3D ( 'NONE', #160, #247, #4 ) ;
#154 = DIRECTION ( 'NONE',  ( 0.000000000000000000, 0.000000000000000000, -1.000000000000000000 ) ) ;
#155 = CARTESIAN_POINT ( 'NONE',  ( 5.990000000000002878, 0.000000000000000000, 0.3125000000000000000 ) ) ;
#156 = COORDINATED_UNIVERSAL_TIME_OFFSET ( 5, 0, .BEHIND. ) ;
#157 = DIRECTION ( 'NONE',  ( -1.000000000000000000, 0.000000000000000000, 0.000000000000000000 ) ) ;
#158 = DATE_TIME_ROLE ( 'classification_date' ) ;
#159 = DIRECTION ( 'NONE',  ( -1.000000000000000000, 0.000000000000000000, 0.000000000000000000 ) ) ;
#160 = CARTESIAN_POINT ( 'NONE',  ( 0.000000000000000000, 0.000000000000000000, 0.000000000000000000 ) ) ;
#161 = CC_DESIGN_PERSON_AND_ORGANIZATION_ASSIGNMENT ( #75, #240, ( #17 ) ) ;
#162 = APPROVAL_STATUS ( 'not_yet_approved' ) ;
#163 = AXIS2_PLACEMENT_3D ( 'NONE', #191, #192, #154 ) ;
#164 = APPROVAL ( #135, 'UNSPECIFIED' ) ;
#165 = VERTEX_POINT ( 'NONE', #61 ) ;
#166 = LINE ( 'NONE', #261, #1 ) ;
#167 = VERTEX_POINT ( 'NONE', #123 ) ;
#168 = ORIENTED_EDGE ( 'NONE', *, *, #145, .T. ) ;
#169 = PERSON ( 'UNSPECIFIED', 'UNSPECIFIED', 'UNSPECIFIED', ('UNSPECIFIED'), ('UNSPECIFIED'), ('UNSPECIFIED') ) ;
#170 = ORIENTED_EDGE ( 'NONE', *, *, #278, .F. ) ;
#171 = VECTOR ( 'NONE', #210, 39.37007874015748854 ) ;
#172 = LINE ( 'NONE', #91, #130 ) ;
#173 =( NAMED_UNIT ( * ) PLANE_ANGLE_UNIT ( ) SI_UNIT ( $, .RADIAN. ) );
#174 = ADVANCED_FACE ( 'NONE', ( #45 ), #107, .F. ) ;
#175 = DIRECTION ( 'NONE',  ( -1.000000000000000000, 0.000000000000000000, 0.000000000000000000 ) ) ;
#176 = DIRECTION ( 'NONE',  ( 0.7071067811866030839, 8.659560562354252466E-17, 0.7071067811864919506 ) ) ;
#177 = DIRECTION ( 'NONE',  ( -1.000000000000000000, 0.000000000000000000, 0.000000000000000000 ) ) ;
#178 = EDGE_CURVE ( 'NONE', #167, #42, #166, .T. ) ;
#179 = APPROVAL_ROLE ( '' ) ;
#180 = PLANE ( 'NONE',  #151 ) ;
#181 = PERSON_AND_ORGANIZATION_ROLE ( 'design_owner' ) ;
#182 = EDGE_CURVE ( 'NONE', #165, #42, #56, .T. ) ;
#183 = PERSON_AND_ORGANIZATION_ROLE ( 'creator' ) ;
#184 = AXIS2_PLACEMENT_3D ( 'NONE', #266, #68, #241 ) ;
#185 = ORIENTED_EDGE ( 'NONE', *, *, #142, .F. ) ;
#186 = ADVANCED_FACE ( 'NONE', ( #214 ), #205, .T. ) ;
#187 = LENGTH_MEASURE_WITH_UNIT ( LENGTH_MEASURE( 0.02539999999999999897 ), #70 );
#188 = EDGE_LOOP ( 'NONE', ( #168, #206 ) ) ;
#189 = ORIENTED_EDGE ( 'NONE', *, *, #72, .T. ) ;
#190 = ORIENTED_EDGE ( 'NONE', *, *, #182, .F. ) ;
#191 = CARTESIAN_POINT ( 'NONE',  ( -5.989999999999986002, 0.000000000000000000, 0.000000000000000000 ) ) ;
#192 = DIRECTION ( 'NONE',  ( 1.000000000000000000, -0.000000000000000000, -0.000000000000000000 ) ) ;
#193 = DIRECTION ( 'NONE',  ( 1.000000000000000000, 0.000000000000000000, 0.000000000000000000 ) ) ;
#194 = APPROVAL_PERSON_ORGANIZATION ( #48, #164, #179 ) ;
#195 = CARTESIAN_POINT ( 'NONE',  ( 6.000000000000000888, 0.000000000000000000, 0.000000000000000000 ) ) ;
#196 = EDGE_CURVE ( 'NONE', #233, #273, #213, .T. ) ;
#197 = DATE_AND_TIME ( #31, #20 ) ;
#198 = CARTESIAN_POINT ( 'NONE',  ( -5.989999999999986002, 0.000000000000000000, 0.000000000000000000 ) ) ;
#199 = CARTESIAN_POINT ( 'NONE',  ( -6.000000000000000888, 0.000000000000000000, -0.3024999999999872236 ) ) ;
#200 = DATE_AND_TIME ( #97, #232 ) ;
#201 = ADVANCED_BREP_SHAPE_REPRESENTATION ( 'NIL10-012.000-SL', ( #144, #153 ), #275 ) ;
#202 = PERSON_AND_ORGANIZATION ( #169, #116 ) ;
#203 = DATE_AND_TIME ( #224, #250 ) ;
#204 = EDGE_CURVE ( 'NONE', #38, #11, #152, .T. ) ;
#205 = CONICAL_SURFACE ( 'NONE', #44, 0.3125000000000000000, 0.7853981633973696752 ) ;
#206 = ORIENTED_EDGE ( 'NONE', *, *, #6, .T. ) ;
#207 = FACE_OUTER_BOUND ( 'NONE', #35, .T. ) ;
#208 = DIRECTION ( 'NONE',  ( 1.000000000000000000, 0.000000000000000000, 0.000000000000000000 ) ) ;
#209 = ADVANCED_FACE ( 'NONE', ( #207 ), #211, .T. ) ;
#210 = DIRECTION ( 'NONE',  ( -0.7071067811865257013, 0.000000000000000000, 0.7071067811865691111 ) ) ;
#211 = CONICAL_SURFACE ( 'NONE', #163, 0.3125000000000000000, 0.7853981633973696752 ) ;
#212 = APPROVAL ( #52, 'UNSPECIFIED' ) ;
#213 = LINE ( 'NONE', #21, #223 ) ;
#214 = FACE_OUTER_BOUND ( 'NONE', #253, .T. ) ;
#215 = DIRECTION ( 'NONE',  ( 0.000000000000000000, 0.000000000000000000, -1.000000000000000000 ) ) ;
#216 = FACE_OUTER_BOUND ( 'NONE', #188, .T. ) ;
#217 = COORDINATED_UNIVERSAL_TIME_OFFSET ( 5, 0, .BEHIND. ) ;
#218 = CARTESIAN_POINT ( 'NONE',  ( 6.000000000000000888, 0.000000000000000000, 0.3025000000000014344 ) ) ;
#219 = APPROVAL_DATE_TIME ( #138, #246 ) ;
#220 = DIRECTION ( 'NONE',  ( 0.000000000000000000, 0.000000000000000000, -1.000000000000000000 ) ) ;
#221 = EDGE_CURVE ( 'NONE', #167, #129, #271, .T. ) ;
#222 = PERSON_AND_ORGANIZATION ( #169, #116 ) ;
#223 = VECTOR ( 'NONE', #147, 39.37007874015748854 ) ;
#224 = CALENDAR_DATE ( 2023, 7, 6 ) ;
#225 = CIRCLE ( 'NONE', #66, 0.3025000000000014344 ) ;
#226 = ORIENTED_EDGE ( 'NONE', *, *, #142, .T. ) ;
#227 = CARTESIAN_POINT ( 'NONE',  ( -5.989999999999986002, 0.000000000000000000, -0.3125000000000000000 ) ) ;
#228 = ADVANCED_FACE ( 'NONE', ( #263 ), #36, .T. ) ;
#229 = ORIENTED_EDGE ( 'NONE', *, *, #278, .T. ) ;
#230 = CARTESIAN_POINT ( 'NONE',  ( -5.989999999999986002, 0.000000000000000000, 0.000000000000000000 ) ) ;
#231 = ORIENTED_EDGE ( 'NONE', *, *, #33, .T. ) ;
#232 = LOCAL_TIME ( 8, 29, 58.00000000000000000, #217 ) ;
#233 = VERTEX_POINT ( 'NONE', #71 ) ;
#234 = APPROVAL_PERSON_ORGANIZATION ( #76, #246, #249 ) ;
#235 = EDGE_LOOP ( 'NONE', ( #231, #81 ) ) ;
#236 = CARTESIAN_POINT ( 'NONE',  ( 6.000000000000000888, 0.000000000000000000, 0.3025000000000014344 ) ) ;
#237 = LINE ( 'NONE', #227, #89 ) ;
#238 = CARTESIAN_POINT ( 'NONE',  ( 6.000000000000000888, 3.827021247335477694E-17, -0.3125000000000000000 ) ) ;
#239 = CC_DESIGN_PERSON_AND_ORGANIZATION_ASSIGNMENT ( #242, #26, ( #126 ) ) ;
#240 = PERSON_AND_ORGANIZATION_ROLE ( 'creator' ) ;
#241 = DIRECTION ( 'NONE',  ( 0.000000000000000000, 0.000000000000000000, -1.000000000000000000 ) ) ;
#242 = PERSON_AND_ORGANIZATION ( #169, #116 ) ;
#243 = AXIS2_PLACEMENT_3D ( 'NONE', #133, #272, #63 ) ;
#244 = FACE_OUTER_BOUND ( 'NONE', #14, .T. ) ;
#245 = DIMENSIONAL_EXPONENTS ( 1.000000000000000000, 0.000000000000000000, 0.000000000000000000, 0.000000000000000000, 0.000000000000000000, 0.000000000000000000, 0.000000000000000000 ) ;
#246 = APPROVAL ( #162, 'UNSPECIFIED' ) ;
#247 = DIRECTION ( 'NONE',  ( 0.000000000000000000, 0.000000000000000000, 1.000000000000000000 ) ) ;
#248 = APPLICATION_CONTEXT ( 'configuration controlled 3d designs of mechanical parts and assemblies' ) ;
#249 = APPROVAL_ROLE ( '' ) ;
#250 = LOCAL_TIME ( 8, 29, 58.00000000000000000, #29 ) ;
#251 = DIRECTION ( 'NONE',  ( -1.000000000000000000, -0.000000000000000000, -0.000000000000000000 ) ) ;
#252 = CIRCLE ( 'NONE', #184, 0.3024999999999872236 ) ;
#253 = EDGE_LOOP ( 'NONE', ( #59, #104, #190, #18 ) ) ;
#254 = ORIENTED_EDGE ( 'NONE', *, *, #270, .T. ) ;
#255 = AXIS2_PLACEMENT_3D ( 'NONE', #198, #28, #220 ) ;
#256 = PRODUCT ( 'NIL10-012.000-SL', 'NIL10-012.000-SL', '', ( #117 ) ) ;
#257 = ORIENTED_EDGE ( 'NONE', *, *, #72, .F. ) ;
#258 = CC_DESIGN_SECURITY_CLASSIFICATION ( #34, ( #126 ) ) ;
#259 = CC_DESIGN_DATE_AND_TIME_ASSIGNMENT ( #203, #115, ( #17 ) ) ;
#260 = CARTESIAN_POINT ( 'NONE',  ( 6.000000000000000888, 0.000000000000000000, 0.000000000000000000 ) ) ;
#261 = CARTESIAN_POINT ( 'NONE',  ( -5.989999999999986002, 3.827021247335478926E-17, 0.3125000000000000000 ) ) ;
#262 = LOCAL_TIME ( 8, 29, 58.00000000000000000, #156 ) ;
#263 = FACE_OUTER_BOUND ( 'NONE', #274, .T. ) ;
#264 = DIRECTION ( 'NONE',  ( -1.000000000000000000, -0.000000000000000000, -0.000000000000000000 ) ) ;
#265 = COORDINATED_UNIVERSAL_TIME_OFFSET ( 5, 0, .BEHIND. ) ;
#266 = CARTESIAN_POINT ( 'NONE',  ( -6.000000000000000888, 0.000000000000000000, 0.000000000000000000 ) ) ;
#267 = CIRCLE ( 'NONE', #84, 0.3025000000000014344 ) ;
#268 = CC_DESIGN_APPROVAL ( #246, ( #34 ) ) ;
#269 = APPROVAL_ROLE ( '' ) ;
#270 = EDGE_CURVE ( 'NONE', #129, #165, #237, .T. ) ;
#271 = CIRCLE ( 'NONE', #60, 0.3024999999999872236 ) ;
#272 = DIRECTION ( 'NONE',  ( -1.000000000000000000, -0.000000000000000000, -0.000000000000000000 ) ) ;
#273 = VERTEX_POINT ( 'NONE', #100 ) ;
#274 = EDGE_LOOP ( 'NONE', ( #257, #67, #226, #148 ) ) ;
#275 =( GEOMETRIC_REPRESENTATION_CONTEXT ( 3 ) GLOBAL_UNCERTAINTY_ASSIGNED_CONTEXT ( ( #54 ) ) GLOBAL_UNIT_ASSIGNED_CONTEXT ( ( #277, #173, #43 ) ) REPRESENTATION_CONTEXT ( 'NONE', 'WORKASPACE' ) );
#276 = DIRECTION ( 'NONE',  ( 1.000000000000000000, 0.000000000000000000, 0.000000000000000000 ) ) ;
#277 =( CONVERSION_BASED_UNIT ( 'INCH', #187 ) LENGTH_UNIT ( ) NAMED_UNIT ( #245 ) );
#278 = EDGE_CURVE ( 'NONE', #11, #273, #120, .T. ) ;
ENDSEC;
END-ISO-10303-21;
