ISO-10303-21;
HEADER;
FILE_DESCRIPTION (( 'STEP AP203' ),
    '1' );
FILE_NAME ('NIL08SS-036.000-SL.step',
    '2023-06-07T12:29:53',
    ( '' ),
    ( '' ),
    'SwSTEP 2.0',
    'SolidWorks 2021',
    '' );
FILE_SCHEMA (( 'CONFIG_CONTROL_DESIGN' ));
ENDSEC;

DATA;
#1 = PERSON_AND_ORGANIZATION_ROLE ( 'classification_officer' ) ;
#2 = ORIENTED_EDGE ( 'NONE', *, *, #190, .T. ) ;
#3 = ORIENTED_EDGE ( 'NONE', *, *, #183, .T. ) ;
#4 = ORIENTED_EDGE ( 'NONE', *, *, #184, .F. ) ;
#5 = DIRECTION ( 'NONE',  ( 1.000000000000000000, -0.000000000000000000, -0.000000000000000000 ) ) ;
#6 = APPROVAL_DATE_TIME ( #36, #140 ) ;
#7 = CARTESIAN_POINT ( 'NONE',  ( 18.00000000000000000, 0.000000000000000000, 0.000000000000000000 ) ) ;
#8 = CARTESIAN_POINT ( 'NONE',  ( 18.00000000000000000, 0.000000000000000000, 0.000000000000000000 ) ) ;
#9 = LINE ( 'NONE', #48, #92 ) ;
#10 = CONICAL_SURFACE ( 'NONE', #161, 0.2500000000000000000, 0.7853981633972946241 ) ;
#11 = CC_DESIGN_APPROVAL ( #140, ( #242 ) ) ;
#12 =( NAMED_UNIT ( * ) PLANE_ANGLE_UNIT ( ) SI_UNIT ( $, .RADIAN. ) );
#13 = DIRECTION ( 'NONE',  ( 1.000000000000000000, 0.000000000000000000, 0.000000000000000000 ) ) ;
#14 = DIRECTION ( 'NONE',  ( 0.000000000000000000, 0.000000000000000000, -1.000000000000000000 ) ) ;
#15 = CALENDAR_DATE ( 2023, 7, 6 ) ;
#16 = CIRCLE ( 'NONE', #218, 0.2500000000000000000 ) ;
#17 = CC_DESIGN_PERSON_AND_ORGANIZATION_ASSIGNMENT ( #164, #1, ( #162 ) ) ;
#18 = SHAPE_DEFINITION_REPRESENTATION ( #170, #112 ) ;
#19 = ORIENTED_EDGE ( 'NONE', *, *, #216, .T. ) ;
#20 = ADVANCED_FACE ( 'NONE', ( #111 ), #10, .T. ) ;
#21 = ORIENTED_EDGE ( 'NONE', *, *, #224, .F. ) ;
#22 = AXIS2_PLACEMENT_3D ( 'NONE', #186, #75, #211 ) ;
#23 = DIRECTION ( 'NONE',  ( -1.000000000000000000, -0.000000000000000000, -0.000000000000000000 ) ) ;
#24 = DIRECTION ( 'NONE',  ( 0.000000000000000000, 0.000000000000000000, -1.000000000000000000 ) ) ;
#25 = ORIENTED_EDGE ( 'NONE', *, *, #102, .F. ) ;
#26 = CIRCLE ( 'NONE', #22, 0.2500000000000000000 ) ;
#27 = DIRECTION ( 'NONE',  ( -1.000000000000000000, 0.000000000000000000, 0.000000000000000000 ) ) ;
#28 = DIRECTION ( 'NONE',  ( 0.000000000000000000, 0.000000000000000000, 1.000000000000000000 ) ) ;
#29 = ADVANCED_FACE ( 'NONE', ( #81 ), #173, .T. ) ;
#30 = AXIS2_PLACEMENT_3D ( 'NONE', #204, #23, #247 ) ;
#31 = CARTESIAN_POINT ( 'NONE',  ( -18.00000000000000000, 0.000000000000000000, 0.000000000000000000 ) ) ;
#32 = CC_DESIGN_DATE_AND_TIME_ASSIGNMENT ( #237, #99, ( #162 ) ) ;
#33 = LINE ( 'NONE', #95, #137 ) ;
#34 = AXIS2_PLACEMENT_3D ( 'NONE', #228, #113, #180 ) ;
#35 = DIRECTION ( 'NONE',  ( 0.000000000000000000, 0.000000000000000000, 1.000000000000000000 ) ) ;
#36 = DATE_AND_TIME ( #278, #110 ) ;
#37 = EDGE_CURVE ( 'NONE', #55, #61, #249, .T. ) ;
#38 = ORIENTED_EDGE ( 'NONE', *, *, #155, .F. ) ;
#39 = PERSON_AND_ORGANIZATION_ROLE ( 'creator' ) ;
#40 = APPROVAL_PERSON_ORGANIZATION ( #54, #192, #83 ) ;
#41 = UNCERTAINTY_MEASURE_WITH_UNIT (LENGTH_MEASURE( 1.000000000000000082E-05 ), #230, 'distance_accuracy_value', 'NONE');
#42 = PERSON_AND_ORGANIZATION ( #133, #76 ) ;
#43 = AXIS2_PLACEMENT_3D ( 'NONE', #246, #62, #153 ) ;
#44 = ORIENTED_EDGE ( 'NONE', *, *, #260, .F. ) ;
#45 = DIRECTION ( 'NONE',  ( 0.000000000000000000, 0.000000000000000000, -1.000000000000000000 ) ) ;
#46 = CARTESIAN_POINT ( 'NONE',  ( 18.00000000000000000, 3.000384657911039529E-17, -0.2400000000000039879 ) ) ;
#47 = APPROVAL_PERSON_ORGANIZATION ( #255, #140, #163 ) ;
#48 = CARTESIAN_POINT ( 'NONE',  ( 18.00000000000000000, 0.000000000000000000, 0.2400000000000039879 ) ) ;
#49 = DIRECTION ( 'NONE',  ( 0.000000000000000000, 0.000000000000000000, -1.000000000000000000 ) ) ;
#50 = VECTOR ( 'NONE', #209, 39.37007874015748854 ) ;
#51 = CARTESIAN_POINT ( 'NONE',  ( -17.98999999999999844, 3.061616997868383018E-17, 0.2500000000000000000 ) ) ;
#52 = LOCAL_TIME ( 8, 29, 53.00000000000000000, #147 ) ;
#53 = APPROVAL_DATE_TIME ( #78, #96 ) ;
#54 = PERSON_AND_ORGANIZATION ( #133, #76 ) ;
#55 = VERTEX_POINT ( 'NONE', #84 ) ;
#56 = ORIENTED_EDGE ( 'NONE', *, *, #126, .T. ) ;
#57 = PERSON_AND_ORGANIZATION ( #133, #76 ) ;
#58 = VECTOR ( 'NONE', #206, 39.37007874015748143 ) ;
#59 = VERTEX_POINT ( 'NONE', #150 ) ;
#60 = LOCAL_TIME ( 8, 29, 53.00000000000000000, #217 ) ;
#61 = VERTEX_POINT ( 'NONE', #65 ) ;
#62 = DIRECTION ( 'NONE',  ( -1.000000000000000000, 0.000000000000000000, 0.000000000000000000 ) ) ;
#63 = AXIS2_PLACEMENT_3D ( 'NONE', #227, #27, #28 ) ;
#64 = ADVANCED_FACE ( 'NONE', ( #223 ), #98, .T. ) ;
#65 = CARTESIAN_POINT ( 'NONE',  ( -17.98999999999999844, 3.061616997868383018E-17, -0.2500000000000000000 ) ) ;
#66 = CC_DESIGN_PERSON_AND_ORGANIZATION_ASSIGNMENT ( #272, #195, ( #167 ) ) ;
#67 = ORIENTED_EDGE ( 'NONE', *, *, #231, .F. ) ;
#68 = CARTESIAN_POINT ( 'NONE',  ( -17.98999999999999844, 0.000000000000000000, 0.000000000000000000 ) ) ;
#69 = AXIS2_PLACEMENT_3D ( 'NONE', #205, #250, #151 ) ;
#70 = DIRECTION ( 'NONE',  ( 0.000000000000000000, 0.000000000000000000, -1.000000000000000000 ) ) ;
#71 = ADVANCED_FACE ( 'NONE', ( #152 ), #104, .T. ) ;
#72 = DIRECTION ( 'NONE',  ( 0.000000000000000000, 0.000000000000000000, -1.000000000000000000 ) ) ;
#73 = CARTESIAN_POINT ( 'NONE',  ( -17.98999999999999844, 0.000000000000000000, 0.2500000000000000000 ) ) ;
#74 = LENGTH_MEASURE_WITH_UNIT ( LENGTH_MEASURE( 0.02539999999999999897 ), #139 );
#75 = DIRECTION ( 'NONE',  ( -1.000000000000000000, 0.000000000000000000, 0.000000000000000000 ) ) ;
#76 = ORGANIZATION ( 'UNSPECIFIED', 'UNSPECIFIED', '' ) ;
#77 = CALENDAR_DATE ( 2023, 7, 6 ) ;
#78 = DATE_AND_TIME ( #103, #185 ) ;
#79 = ORIENTED_EDGE ( 'NONE', *, *, #260, .T. ) ;
#80 = ORIENTED_EDGE ( 'NONE', *, *, #184, .T. ) ;
#81 = FACE_OUTER_BOUND ( 'NONE', #197, .T. ) ;
#82 = DIRECTION ( 'NONE',  ( -1.000000000000000000, -0.000000000000000000, -0.000000000000000000 ) ) ;
#83 = APPROVAL_ROLE ( '' ) ;
#84 = CARTESIAN_POINT ( 'NONE',  ( 17.99000000000000199, 3.061616997868383018E-17, -0.2500000000000000000 ) ) ;
#85 = CARTESIAN_POINT ( 'NONE',  ( -18.00000000000000000, 0.000000000000000000, -0.2399999999999996303 ) ) ;
#86 = APPLICATION_CONTEXT ( 'configuration controlled 3d designs of mechanical parts and assemblies' ) ;
#87 = DIRECTION ( 'NONE',  ( 0.000000000000000000, 0.000000000000000000, 1.000000000000000000 ) ) ;
#88 = AXIS2_PLACEMENT_3D ( 'NONE', #225, #109, #87 ) ;
#89 = EDGE_CURVE ( 'NONE', #59, #55, #114, .T. ) ;
#90 = DIRECTION ( 'NONE',  ( 0.7071067811866562636, 8.659560562353602888E-17, 0.7071067811864388819 ) ) ;
#91 = PRODUCT_RELATED_PRODUCT_CATEGORY ( 'detail', '', ( #167 ) ) ;
#92 = VECTOR ( 'NONE', #132, 39.37007874015748854 ) ;
#93 = CC_DESIGN_SECURITY_CLASSIFICATION ( #162, ( #242 ) ) ;
#94 = CARTESIAN_POINT ( 'NONE',  ( -17.98999999999999844, 0.000000000000000000, 0.000000000000000000 ) ) ;
#95 = CARTESIAN_POINT ( 'NONE',  ( -17.98999999999999844, 0.000000000000000000, -0.2500000000000000000 ) ) ;
#96 = APPROVAL ( #215, 'UNSPECIFIED' ) ;
#97 = ORIENTED_EDGE ( 'NONE', *, *, #37, .F. ) ;
#98 = CONICAL_SURFACE ( 'NONE', #69, 0.2500000000000000000, 0.7853981633972946241 ) ;
#99 = DATE_TIME_ROLE ( 'classification_date' ) ;
#100 = ORIENTED_EDGE ( 'NONE', *, *, #89, .T. ) ;
#101 = ORIENTED_EDGE ( 'NONE', *, *, #231, .T. ) ;
#102 = EDGE_CURVE ( 'NONE', #266, #59, #9, .T. ) ;
#103 = CALENDAR_DATE ( 2023, 7, 6 ) ;
#104 = CONICAL_SURFACE ( 'NONE', #43, 0.2400000000000039879, 0.7853981633974039811 ) ;
#105 = VERTEX_POINT ( 'NONE', #46 ) ;
#106 = CARTESIAN_POINT ( 'NONE',  ( 17.99000000000000199, 0.000000000000000000, 0.000000000000000000 ) ) ;
#107 = ORIENTED_EDGE ( 'NONE', *, *, #224, .T. ) ;
#108 = APPLICATION_CONTEXT ( 'configuration controlled 3d designs of mechanical parts and assemblies' ) ;
#109 = DIRECTION ( 'NONE',  ( -1.000000000000000000, -0.000000000000000000, -0.000000000000000000 ) ) ;
#110 = LOCAL_TIME ( 8, 29, 53.00000000000000000, #258 ) ;
#111 = FACE_OUTER_BOUND ( 'NONE', #123, .T. ) ;
#112 = ADVANCED_BREP_SHAPE_REPRESENTATION ( 'NIL08SS-036.000-SL', ( #219, #252 ), #127 ) ;
#113 = DIRECTION ( 'NONE',  ( 1.000000000000000000, 0.000000000000000000, 0.000000000000000000 ) ) ;
#114 = CIRCLE ( 'NONE', #222, 0.2500000000000000000 ) ;
#115 = LINE ( 'NONE', #51, #257 ) ;
#116 = ADVANCED_FACE ( 'NONE', ( #177 ), #245, .T. ) ;
#117 = CARTESIAN_POINT ( 'NONE',  ( -18.00000000000000000, 3.000384657911013028E-17, 0.2399999999999996303 ) ) ;
#118 =( NAMED_UNIT ( * ) SI_UNIT ( $, .STERADIAN. ) SOLID_ANGLE_UNIT ( ) );
#119 = CALENDAR_DATE ( 2023, 7, 6 ) ;
#120 = SECURITY_CLASSIFICATION_LEVEL ( 'unclassified' ) ;
#121 = ORIENTED_EDGE ( 'NONE', *, *, #174, .F. ) ;
#122 = VECTOR ( 'NONE', #254, 39.37007874015748143 ) ;
#123 = EDGE_LOOP ( 'NONE', ( #21, #241, #19, #44 ) ) ;
#124 = PERSON_AND_ORGANIZATION_ROLE ( 'design_supplier' ) ;
#125 = ORIENTED_EDGE ( 'NONE', *, *, #126, .F. ) ;
#126 = EDGE_CURVE ( 'NONE', #268, #169, #276, .T. ) ;
#127 =( GEOMETRIC_REPRESENTATION_CONTEXT ( 3 ) GLOBAL_UNCERTAINTY_ASSIGNED_CONTEXT ( ( #41 ) ) GLOBAL_UNIT_ASSIGNED_CONTEXT ( ( #230, #12, #118 ) ) REPRESENTATION_CONTEXT ( 'NONE', 'WORKASPACE' ) );
#128 = LINE ( 'NONE', #160, #122 ) ;
#129 = CARTESIAN_POINT ( 'NONE',  ( 18.00000000000000000, 3.061616997868383018E-17, -0.2500000000000000000 ) ) ;
#130 = DIRECTION ( 'NONE',  ( -1.000000000000000000, 0.000000000000000000, 0.000000000000000000 ) ) ;
#131 = FACE_OUTER_BOUND ( 'NONE', #194, .T. ) ;
#132 = DIRECTION ( 'NONE',  ( -0.7071067811865787700, 0.000000000000000000, 0.7071067811865160424 ) ) ;
#133 = PERSON ( 'UNSPECIFIED', 'UNSPECIFIED', 'UNSPECIFIED', ('UNSPECIFIED'), ('UNSPECIFIED'), ('UNSPECIFIED') ) ;
#134 = DIRECTION ( 'NONE',  ( -1.000000000000000000, -0.000000000000000000, -0.000000000000000000 ) ) ;
#135 = PLANE ( 'NONE',  #267 ) ;
#136 = DESIGN_CONTEXT ( 'detailed design', #108, 'design' ) ;
#137 = VECTOR ( 'NONE', #158, 39.37007874015748143 ) ;
#138 = APPLICATION_PROTOCOL_DEFINITION ( 'international standard', 'config_control_design', 1994, #86 ) ;
#139 =( LENGTH_UNIT ( ) NAMED_UNIT ( * ) SI_UNIT ( $, .METRE. ) );
#140 = APPROVAL ( #168, 'UNSPECIFIED' ) ;
#141 = ADVANCED_FACE ( 'NONE', ( #131 ), #236, .T. ) ;
#142 = APPLICATION_PROTOCOL_DEFINITION ( 'international standard', 'config_control_design', 1994, #108 ) ;
#143 = ORIENTED_EDGE ( 'NONE', *, *, #271, .T. ) ;
#144 = PERSON_AND_ORGANIZATION_ROLE ( 'creator' ) ;
#145 = CIRCLE ( 'NONE', #199, 0.2400000000000039879 ) ;
#146 = ORIENTED_EDGE ( 'NONE', *, *, #89, .F. ) ;
#147 = COORDINATED_UNIVERSAL_TIME_OFFSET ( 5, 0, .BEHIND. ) ;
#148 = EDGE_LOOP ( 'NONE', ( #125, #107, #121, #263 ) ) ;
#149 = CIRCLE ( 'NONE', #232, 0.2399999999999996303 ) ;
#150 = CARTESIAN_POINT ( 'NONE',  ( 17.99000000000000199, 0.000000000000000000, 0.2500000000000000000 ) ) ;
#151 = DIRECTION ( 'NONE',  ( 0.000000000000000000, 0.000000000000000000, -1.000000000000000000 ) ) ;
#152 = FACE_OUTER_BOUND ( 'NONE', #200, .T. ) ;
#153 = DIRECTION ( 'NONE',  ( 0.000000000000000000, 0.000000000000000000, 1.000000000000000000 ) ) ;
#154 = CARTESIAN_POINT ( 'NONE',  ( -17.98999999999999844, 0.000000000000000000, 0.000000000000000000 ) ) ;
#155 = EDGE_CURVE ( 'NONE', #266, #105, #145, .T. ) ;
#156 = CARTESIAN_POINT ( 'NONE',  ( 0.000000000000000000, 0.000000000000000000, 0.000000000000000000 ) ) ;
#157 = CC_DESIGN_PERSON_AND_ORGANIZATION_ASSIGNMENT ( #262, #144, ( #265 ) ) ;
#158 = DIRECTION ( 'NONE',  ( 0.7071067811866562636, 0.000000000000000000, -0.7071067811864388819 ) ) ;
#159 = DIRECTION ( 'NONE',  ( 1.000000000000000000, 0.000000000000000000, 0.000000000000000000 ) ) ;
#160 = CARTESIAN_POINT ( 'NONE',  ( 18.00000000000000000, 0.000000000000000000, 0.2500000000000000000 ) ) ;
#161 = AXIS2_PLACEMENT_3D ( 'NONE', #68, #5, #45 ) ;
#162 = SECURITY_CLASSIFICATION ( '', '', #120 ) ;
#163 = APPROVAL_ROLE ( '' ) ;
#164 = PERSON_AND_ORGANIZATION ( #133, #76 ) ;
#165 = ORIENTED_EDGE ( 'NONE', *, *, #37, .T. ) ;
#166 = CC_DESIGN_DATE_AND_TIME_ASSIGNMENT ( #240, #188, ( #265 ) ) ;
#167 = PRODUCT ( 'NIL08SS-036.000-SL', 'NIL08SS-036.000-SL', '', ( #182 ) ) ;
#168 = APPROVAL_STATUS ( 'not_yet_approved' ) ;
#169 = VERTEX_POINT ( 'NONE', #85 ) ;
#170 = PRODUCT_DEFINITION_SHAPE ( 'NONE', 'NONE',  #265 ) ;
#171 = APPROVAL_DATE_TIME ( #274, #192 ) ;
#172 = ORIENTED_EDGE ( 'NONE', *, *, #271, .F. ) ;
#173 = CYLINDRICAL_SURFACE ( 'NONE', #175, 0.2500000000000000000 ) ;
#174 = EDGE_CURVE ( 'NONE', #61, #202, #191, .T. ) ;
#175 = AXIS2_PLACEMENT_3D ( 'NONE', #7, #82, #176 ) ;
#176 = DIRECTION ( 'NONE',  ( 0.000000000000000000, 0.000000000000000000, 1.000000000000000000 ) ) ;
#177 = FACE_OUTER_BOUND ( 'NONE', #189, .T. ) ;
#178 = CC_DESIGN_PERSON_AND_ORGANIZATION_ASSIGNMENT ( #57, #124, ( #242 ) ) ;
#179 = DIRECTION ( 'NONE',  ( 1.000000000000000000, -0.000000000000000000, -0.000000000000000000 ) ) ;
#180 = DIRECTION ( 'NONE',  ( 0.000000000000000000, 0.000000000000000000, -1.000000000000000000 ) ) ;
#181 = LOCAL_TIME ( 8, 29, 53.00000000000000000, #239 ) ;
#182 = MECHANICAL_CONTEXT ( 'NONE', #86, 'mechanical' ) ;
#183 = EDGE_CURVE ( 'NONE', #105, #266, #248, .T. ) ;
#184 = EDGE_CURVE ( 'NONE', #59, #202, #128, .T. ) ;
#185 = LOCAL_TIME ( 8, 29, 53.00000000000000000, #277 ) ;
#186 = CARTESIAN_POINT ( 'NONE',  ( 17.99000000000000199, 0.000000000000000000, 0.000000000000000000 ) ) ;
#187 = FACE_OUTER_BOUND ( 'NONE', #259, .T. ) ;
#188 = DATE_TIME_ROLE ( 'creation_date' ) ;
#189 = EDGE_LOOP ( 'NONE', ( #97, #143, #80, #79 ) ) ;
#190 = EDGE_CURVE ( 'NONE', #169, #268, #149, .T. ) ;
#191 = CIRCLE ( 'NONE', #226, 0.2500000000000000000 ) ;
#192 = APPROVAL ( #243, 'UNSPECIFIED' ) ;
#193 = PERSON_AND_ORGANIZATION ( #133, #76 ) ;
#194 = EDGE_LOOP ( 'NONE', ( #221, #101, #146, #25 ) ) ;
#195 = PERSON_AND_ORGANIZATION_ROLE ( 'design_owner' ) ;
#196 = DIMENSIONAL_EXPONENTS ( 1.000000000000000000, 0.000000000000000000, 0.000000000000000000, 0.000000000000000000, 0.000000000000000000, 0.000000000000000000, 0.000000000000000000 ) ;
#197 = EDGE_LOOP ( 'NONE', ( #100, #165, #220, #4 ) ) ;
#198 = APPROVAL_ROLE ( '' ) ;
#199 = AXIS2_PLACEMENT_3D ( 'NONE', #8, #270, #70 ) ;
#200 = EDGE_LOOP ( 'NONE', ( #67, #38, #261, #172 ) ) ;
#201 = ORIENTED_EDGE ( 'NONE', *, *, #155, .T. ) ;
#202 = VERTEX_POINT ( 'NONE', #73 ) ;
#203 = CC_DESIGN_APPROVAL ( #192, ( #265 ) ) ;
#204 = CARTESIAN_POINT ( 'NONE',  ( -18.00000000000000000, 0.000000000000000000, 0.000000000000000000 ) ) ;
#205 = CARTESIAN_POINT ( 'NONE',  ( -17.98999999999999844, 0.000000000000000000, 0.000000000000000000 ) ) ;
#206 = DIRECTION ( 'NONE',  ( -1.000000000000000000, -0.000000000000000000, -0.000000000000000000 ) ) ;
#207 = CARTESIAN_POINT ( 'NONE',  ( -18.00000000000000000, 0.000000000000000000, 0.000000000000000000 ) ) ;
#208 = AXIS2_PLACEMENT_3D ( 'NONE', #234, #13, #14 ) ;
#209 = DIRECTION ( 'NONE',  ( -0.7071067811865787700, 8.659560562354547056E-17, -0.7071067811865160424 ) ) ;
#210 = ADVANCED_FACE ( 'NONE', ( #187 ), #135, .F. ) ;
#211 = DIRECTION ( 'NONE',  ( 0.000000000000000000, 0.000000000000000000, -1.000000000000000000 ) ) ;
#212 = CARTESIAN_POINT ( 'NONE',  ( 18.00000000000000000, 2.939152317953696656E-17, -0.2400000000000039879 ) ) ;
#213 = APPROVAL_PERSON_ORGANIZATION ( #193, #96, #198 ) ;
#214 = FACE_OUTER_BOUND ( 'NONE', #275, .T. ) ;
#215 = APPROVAL_STATUS ( 'not_yet_approved' ) ;
#216 = EDGE_CURVE ( 'NONE', #169, #61, #33, .T. ) ;
#217 = COORDINATED_UNIVERSAL_TIME_OFFSET ( 5, 0, .BEHIND. ) ;
#218 = AXIS2_PLACEMENT_3D ( 'NONE', #94, #253, #49 ) ;
#219 = MANIFOLD_SOLID_BREP ( 'Chamfer1', #256 ) ;
#220 = ORIENTED_EDGE ( 'NONE', *, *, #174, .T. ) ;
#221 = ORIENTED_EDGE ( 'NONE', *, *, #183, .F. ) ;
#222 = AXIS2_PLACEMENT_3D ( 'NONE', #106, #130, #24 ) ;
#223 = FACE_OUTER_BOUND ( 'NONE', #148, .T. ) ;
#224 = EDGE_CURVE ( 'NONE', #268, #202, #115, .T. ) ;
#225 = CARTESIAN_POINT ( 'NONE',  ( 18.00000000000000000, 0.000000000000000000, 0.000000000000000000 ) ) ;
#226 = AXIS2_PLACEMENT_3D ( 'NONE', #154, #179, #269 ) ;
#227 = CARTESIAN_POINT ( 'NONE',  ( 18.00000000000000000, 0.000000000000000000, 0.000000000000000000 ) ) ;
#228 = CARTESIAN_POINT ( 'NONE',  ( 18.00000000000000000, 0.000000000000000000, 0.000000000000000000 ) ) ;
#229 = CARTESIAN_POINT ( 'NONE',  ( 18.00000000000000000, 0.000000000000000000, 0.2400000000000039879 ) ) ;
#230 =( CONVERSION_BASED_UNIT ( 'INCH', #74 ) LENGTH_UNIT ( ) NAMED_UNIT ( #196 ) );
#231 = EDGE_CURVE ( 'NONE', #105, #55, #233, .T. ) ;
#232 = AXIS2_PLACEMENT_3D ( 'NONE', #31, #134, #72 ) ;
#233 = LINE ( 'NONE', #212, #50 ) ;
#234 = CARTESIAN_POINT ( 'NONE',  ( 18.00000000000000000, 0.000000000000000000, 0.000000000000000000 ) ) ;
#235 = DIRECTION ( 'NONE',  ( 0.000000000000000000, 0.000000000000000000, -1.000000000000000000 ) ) ;
#236 = CONICAL_SURFACE ( 'NONE', #63, 0.2400000000000039879, 0.7853981633974039811 ) ;
#237 = DATE_AND_TIME ( #15, #60 ) ;
#238 = CC_DESIGN_PERSON_AND_ORGANIZATION_ASSIGNMENT ( #42, #39, ( #242 ) ) ;
#239 = COORDINATED_UNIVERSAL_TIME_OFFSET ( 5, 0, .BEHIND. ) ;
#240 = DATE_AND_TIME ( #77, #52 ) ;
#241 = ORIENTED_EDGE ( 'NONE', *, *, #190, .F. ) ;
#242 = PRODUCT_DEFINITION_FORMATION_WITH_SPECIFIED_SOURCE ( 'ANY', '', #167, .NOT_KNOWN. ) ;
#243 = APPROVAL_STATUS ( 'not_yet_approved' ) ;
#244 = CC_DESIGN_APPROVAL ( #96, ( #162 ) ) ;
#245 = CYLINDRICAL_SURFACE ( 'NONE', #88, 0.2500000000000000000 ) ;
#246 = CARTESIAN_POINT ( 'NONE',  ( 18.00000000000000000, 0.000000000000000000, 0.000000000000000000 ) ) ;
#247 = DIRECTION ( 'NONE',  ( 0.000000000000000000, 0.000000000000000000, -1.000000000000000000 ) ) ;
#248 = CIRCLE ( 'NONE', #34, 0.2400000000000039879 ) ;
#249 = LINE ( 'NONE', #129, #58 ) ;
#250 = DIRECTION ( 'NONE',  ( 1.000000000000000000, -0.000000000000000000, -0.000000000000000000 ) ) ;
#251 = DIRECTION ( 'NONE',  ( 1.000000000000000000, 0.000000000000000000, 0.000000000000000000 ) ) ;
#252 = AXIS2_PLACEMENT_3D ( 'NONE', #156, #35, #251 ) ;
#253 = DIRECTION ( 'NONE',  ( 1.000000000000000000, -0.000000000000000000, -0.000000000000000000 ) ) ;
#254 = DIRECTION ( 'NONE',  ( -1.000000000000000000, -0.000000000000000000, -0.000000000000000000 ) ) ;
#255 = PERSON_AND_ORGANIZATION ( #133, #76 ) ;
#256 = CLOSED_SHELL ( 'NONE', ( #64, #141, #29, #116, #264, #210, #71, #20 ) ) ;
#257 = VECTOR ( 'NONE', #90, 39.37007874015748143 ) ;
#258 = COORDINATED_UNIVERSAL_TIME_OFFSET ( 5, 0, .BEHIND. ) ;
#259 = EDGE_LOOP ( 'NONE', ( #2, #56 ) ) ;
#260 = EDGE_CURVE ( 'NONE', #202, #61, #16, .T. ) ;
#261 = ORIENTED_EDGE ( 'NONE', *, *, #102, .T. ) ;
#262 = PERSON_AND_ORGANIZATION ( #133, #76 ) ;
#263 = ORIENTED_EDGE ( 'NONE', *, *, #216, .F. ) ;
#264 = ADVANCED_FACE ( 'NONE', ( #214 ), #273, .T. ) ;
#265 = PRODUCT_DEFINITION ( 'UNKNOWN', '', #242, #136 ) ;
#266 = VERTEX_POINT ( 'NONE', #229 ) ;
#267 = AXIS2_PLACEMENT_3D ( 'NONE', #207, #159, #235 ) ;
#268 = VERTEX_POINT ( 'NONE', #117 ) ;
#269 = DIRECTION ( 'NONE',  ( 0.000000000000000000, 0.000000000000000000, -1.000000000000000000 ) ) ;
#270 = DIRECTION ( 'NONE',  ( 1.000000000000000000, 0.000000000000000000, 0.000000000000000000 ) ) ;
#271 = EDGE_CURVE ( 'NONE', #55, #59, #26, .T. ) ;
#272 = PERSON_AND_ORGANIZATION ( #133, #76 ) ;
#273 = PLANE ( 'NONE',  #208 ) ;
#274 = DATE_AND_TIME ( #119, #181 ) ;
#275 = EDGE_LOOP ( 'NONE', ( #201, #3 ) ) ;
#276 = CIRCLE ( 'NONE', #30, 0.2399999999999996303 ) ;
#277 = COORDINATED_UNIVERSAL_TIME_OFFSET ( 5, 0, .BEHIND. ) ;
#278 = CALENDAR_DATE ( 2023, 7, 6 ) ;
ENDSEC;
END-ISO-10303-21;
