ISO-10303-21;
HEADER;
FILE_DESCRIPTION (( 'STEP AP203' ),
    '1' );
FILE_NAME ('NIL08SS-024.000-SL.step',
    '2023-06-07T12:29:48',
    ( '' ),
    ( '' ),
    'SwSTEP 2.0',
    'SolidWorks 2021',
    '' );
FILE_SCHEMA (( 'CONFIG_CONTROL_DESIGN' ));
ENDSEC;

DATA;
#1 = CIRCLE ( 'NONE', #257, 0.2500000000000000000 ) ;
#2 = CALENDAR_DATE ( 2023, 7, 6 ) ;
#3 = VERTEX_POINT ( 'NONE', #201 ) ;
#4 = DATE_AND_TIME ( #197, #99 ) ;
#5 = CC_DESIGN_PERSON_AND_ORGANIZATION_ASSIGNMENT ( #90, #24, ( #242 ) ) ;
#6 = EDGE_LOOP ( 'NONE', ( #106, #238, #74, #23 ) ) ;
#7 = DIRECTION ( 'NONE',  ( 0.000000000000000000, 0.000000000000000000, 1.000000000000000000 ) ) ;
#8 = AXIS2_PLACEMENT_3D ( 'NONE', #114, #248, #79 ) ;
#9 = FACE_OUTER_BOUND ( 'NONE', #147, .T. ) ;
#10 = EDGE_CURVE ( 'NONE', #42, #174, #98, .T. ) ;
#11 = CARTESIAN_POINT ( 'NONE',  ( -11.98999999999997179, 0.000000000000000000, 0.2500000000000000000 ) ) ;
#12 = DIRECTION ( 'NONE',  ( 0.000000000000000000, 0.000000000000000000, -1.000000000000000000 ) ) ;
#13 = CARTESIAN_POINT ( 'NONE',  ( -12.00000000000000178, 0.000000000000000000, -0.2399999999999711808 ) ) ;
#14 = CARTESIAN_POINT ( 'NONE',  ( -11.98999999999997179, 0.000000000000000000, 0.000000000000000000 ) ) ;
#15 = DIRECTION ( 'NONE',  ( 1.000000000000000000, 0.000000000000000000, 0.000000000000000000 ) ) ;
#16 = AXIS2_PLACEMENT_3D ( 'NONE', #244, #206, #155 ) ;
#17 = CC_DESIGN_PERSON_AND_ORGANIZATION_ASSIGNMENT ( #222, #92, ( #60 ) ) ;
#18 = DIRECTION ( 'NONE',  ( 0.000000000000000000, 0.000000000000000000, -1.000000000000000000 ) ) ;
#19 = PERSON_AND_ORGANIZATION ( #65, #36 ) ;
#20 = CONICAL_SURFACE ( 'NONE', #196, 0.2400000000000148959, 0.7853981633974056464 ) ;
#21 = AXIS2_PLACEMENT_3D ( 'NONE', #161, #156, #202 ) ;
#22 = APPROVAL_PERSON_ORGANIZATION ( #81, #232, #82 ) ;
#23 = ORIENTED_EDGE ( 'NONE', *, *, #10, .F. ) ;
#24 = PERSON_AND_ORGANIZATION_ROLE ( 'creator' ) ;
#25 = VECTOR ( 'NONE', #180, 39.37007874015748143 ) ;
#26 = ORIENTED_EDGE ( 'NONE', *, *, #216, .F. ) ;
#27 = CALENDAR_DATE ( 2023, 7, 6 ) ;
#28 = SHAPE_DEFINITION_REPRESENTATION ( #138, #190 ) ;
#29 = DIRECTION ( 'NONE',  ( 0.000000000000000000, 0.000000000000000000, 1.000000000000000000 ) ) ;
#30 = PLANE ( 'NONE',  #221 ) ;
#31 = EDGE_CURVE ( 'NONE', #89, #212, #213, .T. ) ;
#32 = PRODUCT ( 'NIL08SS-024.000-SL', 'NIL08SS-024.000-SL', '', ( #210 ) ) ;
#33 = CARTESIAN_POINT ( 'NONE',  ( 11.99000000000001442, 0.000000000000000000, 0.000000000000000000 ) ) ;
#34 = DIRECTION ( 'NONE',  ( -1.000000000000000000, -0.000000000000000000, -0.000000000000000000 ) ) ;
#35 = DIRECTION ( 'NONE',  ( -1.000000000000000000, -0.000000000000000000, -0.000000000000000000 ) ) ;
#36 = ORGANIZATION ( 'UNSPECIFIED', 'UNSPECIFIED', '' ) ;
#37 = AXIS2_PLACEMENT_3D ( 'NONE', #51, #230, #7 ) ;
#38 = DIRECTION ( 'NONE',  ( 0.7071067811865777708, 8.659560562354564312E-17, 0.7071067811865173747 ) ) ;
#39 = CIRCLE ( 'NONE', #195, 0.2400000000000148959 ) ;
#40 = CARTESIAN_POINT ( 'NONE',  ( -12.00000000000000178, 0.000000000000000000, 0.000000000000000000 ) ) ;
#41 = ADVANCED_FACE ( 'NONE', ( #140 ), #70, .T. ) ;
#42 = VERTEX_POINT ( 'NONE', #11 ) ;
#43 = ORIENTED_EDGE ( 'NONE', *, *, #268, .T. ) ;
#44 = SECURITY_CLASSIFICATION_LEVEL ( 'unclassified' ) ;
#45 = EDGE_CURVE ( 'NONE', #212, #89, #186, .T. ) ;
#46 = DATE_AND_TIME ( #27, #255 ) ;
#47 = MANIFOLD_SOLID_BREP ( 'Chamfer1', #148 ) ;
#48 = VERTEX_POINT ( 'NONE', #13 ) ;
#49 = SECURITY_CLASSIFICATION ( '', '', #44 ) ;
#50 = APPROVAL_DATE_TIME ( #199, #169 ) ;
#51 = CARTESIAN_POINT ( 'NONE',  ( 12.00000000000000178, 0.000000000000000000, 0.000000000000000000 ) ) ;
#52 = ADVANCED_FACE ( 'NONE', ( #266 ), #246, .T. ) ;
#53 = CYLINDRICAL_SURFACE ( 'NONE', #167, 0.2500000000000000000 ) ;
#54 = DESIGN_CONTEXT ( 'detailed design', #218, 'design' ) ;
#55 = DIRECTION ( 'NONE',  ( 1.000000000000000000, -0.000000000000000000, -0.000000000000000000 ) ) ;
#56 = FACE_OUTER_BOUND ( 'NONE', #223, .T. ) ;
#57 = ORIENTED_EDGE ( 'NONE', *, *, #10, .T. ) ;
#58 = CC_DESIGN_PERSON_AND_ORGANIZATION_ASSIGNMENT ( #19, #104, ( #32 ) ) ;
#59 = APPROVAL_STATUS ( 'not_yet_approved' ) ;
#60 = PRODUCT_DEFINITION_FORMATION_WITH_SPECIFIED_SOURCE ( 'ANY', '', #32, .NOT_KNOWN. ) ;
#61 = AXIS2_PLACEMENT_3D ( 'NONE', #228, #204, #12 ) ;
#62 =( LENGTH_UNIT ( ) NAMED_UNIT ( * ) SI_UNIT ( $, .METRE. ) );
#63 = EDGE_CURVE ( 'NONE', #48, #176, #276, .T. ) ;
#64 = PLANE ( 'NONE',  #146 ) ;
#65 = PERSON ( 'UNSPECIFIED', 'UNSPECIFIED', 'UNSPECIFIED', ('UNSPECIFIED'), ('UNSPECIFIED'), ('UNSPECIFIED') ) ;
#66 = APPROVAL_PERSON_ORGANIZATION ( #239, #173, #73 ) ;
#67 = AXIS2_PLACEMENT_3D ( 'NONE', #33, #137, #80 ) ;
#68 = CALENDAR_DATE ( 2023, 7, 6 ) ;
#69 = ORIENTED_EDGE ( 'NONE', *, *, #110, .F. ) ;
#70 = CONICAL_SURFACE ( 'NONE', #181, 0.2400000000000148959, 0.7853981633974056464 ) ;
#71 = EDGE_CURVE ( 'NONE', #176, #48, #192, .T. ) ;
#72 = ORIENTED_EDGE ( 'NONE', *, *, #225, .F. ) ;
#73 = APPROVAL_ROLE ( '' ) ;
#74 = ORIENTED_EDGE ( 'NONE', *, *, #157, .T. ) ;
#75 = PERSON_AND_ORGANIZATION_ROLE ( 'creator' ) ;
#76 = CC_DESIGN_SECURITY_CLASSIFICATION ( #49, ( #60 ) ) ;
#77 = DIRECTION ( 'NONE',  ( -1.000000000000000000, 0.000000000000000000, 0.000000000000000000 ) ) ;
#78 = CARTESIAN_POINT ( 'NONE',  ( 12.00000000000000178, 0.000000000000000000, 0.000000000000000000 ) ) ;
#79 = DIRECTION ( 'NONE',  ( 0.000000000000000000, 0.000000000000000000, -1.000000000000000000 ) ) ;
#80 = DIRECTION ( 'NONE',  ( 0.000000000000000000, 0.000000000000000000, -1.000000000000000000 ) ) ;
#81 = PERSON_AND_ORGANIZATION ( #65, #36 ) ;
#82 = APPROVAL_ROLE ( '' ) ;
#83 = EDGE_CURVE ( 'NONE', #108, #89, #183, .T. ) ;
#84 = CARTESIAN_POINT ( 'NONE',  ( 12.00000000000000178, 0.000000000000000000, 0.000000000000000000 ) ) ;
#85 = DIRECTION ( 'NONE',  ( 1.000000000000000000, -0.000000000000000000, -0.000000000000000000 ) ) ;
#86 = CARTESIAN_POINT ( 'NONE',  ( 12.00000000000000178, 3.061616997868382402E-17, -0.2500000000000000000 ) ) ;
#87 = ORIENTED_EDGE ( 'NONE', *, *, #268, .F. ) ;
#88 = VECTOR ( 'NONE', #119, 39.37007874015748143 ) ;
#89 = VERTEX_POINT ( 'NONE', #271 ) ;
#90 = PERSON_AND_ORGANIZATION ( #65, #36 ) ;
#91 = ORIENTED_EDGE ( 'NONE', *, *, #103, .T. ) ;
#92 = PERSON_AND_ORGANIZATION_ROLE ( 'design_supplier' ) ;
#93 = APPLICATION_CONTEXT ( 'configuration controlled 3d designs of mechanical parts and assemblies' ) ;
#94 = DIRECTION ( 'NONE',  ( 0.000000000000000000, 0.000000000000000000, -1.000000000000000000 ) ) ;
#95 = CARTESIAN_POINT ( 'NONE',  ( 12.00000000000000178, 0.000000000000000000, 0.000000000000000000 ) ) ;
#96 = ORIENTED_EDGE ( 'NONE', *, *, #83, .T. ) ;
#97 = LINE ( 'NONE', #162, #88 ) ;
#98 = CIRCLE ( 'NONE', #251, 0.2500000000000000000 ) ;
#99 = LOCAL_TIME ( 8, 29, 48.00000000000000000, #132 ) ;
#100 = CARTESIAN_POINT ( 'NONE',  ( -12.00000000000000178, 0.000000000000000000, 0.000000000000000000 ) ) ;
#101 = DIRECTION ( 'NONE',  ( 1.000000000000000000, 0.000000000000000000, 0.000000000000000000 ) ) ;
#102 = CARTESIAN_POINT ( 'NONE',  ( 12.00000000000000178, 0.000000000000000000, 0.000000000000000000 ) ) ;
#103 = EDGE_CURVE ( 'NONE', #89, #42, #245, .T. ) ;
#104 = PERSON_AND_ORGANIZATION_ROLE ( 'design_owner' ) ;
#105 = EDGE_LOOP ( 'NONE', ( #26, #69, #96, #125 ) ) ;
#106 = ORIENTED_EDGE ( 'NONE', *, *, #278, .F. ) ;
#107 = APPROVAL_STATUS ( 'not_yet_approved' ) ;
#108 = VERTEX_POINT ( 'NONE', #269 ) ;
#109 = PERSON_AND_ORGANIZATION ( #65, #36 ) ;
#110 = EDGE_CURVE ( 'NONE', #108, #3, #159, .T. ) ;
#111 = ORIENTED_EDGE ( 'NONE', *, *, #237, .F. ) ;
#112 = FACE_OUTER_BOUND ( 'NONE', #124, .T. ) ;
#113 = CARTESIAN_POINT ( 'NONE',  ( -11.98999999999997179, 0.000000000000000000, 0.000000000000000000 ) ) ;
#114 = CARTESIAN_POINT ( 'NONE',  ( -12.00000000000000178, 0.000000000000000000, 0.000000000000000000 ) ) ;
#115 = ORIENTED_EDGE ( 'NONE', *, *, #237, .T. ) ;
#116 = DIRECTION ( 'NONE',  ( -1.000000000000000000, -0.000000000000000000, -0.000000000000000000 ) ) ;
#117 = CARTESIAN_POINT ( 'NONE',  ( 0.000000000000000000, 0.000000000000000000, 0.000000000000000000 ) ) ;
#118 = DIRECTION ( 'NONE',  ( 0.000000000000000000, 0.000000000000000000, 1.000000000000000000 ) ) ;
#119 = DIRECTION ( 'NONE',  ( -0.7071067811865777708, 8.659560562354564312E-17, -0.7071067811865173747 ) ) ;
#120 = CC_DESIGN_PERSON_AND_ORGANIZATION_ASSIGNMENT ( #109, #240, ( #49 ) ) ;
#121 =( NAMED_UNIT ( * ) SI_UNIT ( $, .STERADIAN. ) SOLID_ANGLE_UNIT ( ) );
#122 = ORIENTED_EDGE ( 'NONE', *, *, #103, .F. ) ;
#123 = PRODUCT_RELATED_PRODUCT_CATEGORY ( 'detail', '', ( #32 ) ) ;
#124 = EDGE_LOOP ( 'NONE', ( #220, #131 ) ) ;
#125 = ORIENTED_EDGE ( 'NONE', *, *, #45, .F. ) ;
#126 = COORDINATED_UNIVERSAL_TIME_OFFSET ( 5, 0, .BEHIND. ) ;
#127 = APPROVAL_PERSON_ORGANIZATION ( #200, #169, #277 ) ;
#128 = DATE_TIME_ROLE ( 'classification_date' ) ;
#129 = VECTOR ( 'NONE', #185, 39.37007874015748143 ) ;
#130 = CC_DESIGN_APPROVAL ( #232, ( #242 ) ) ;
#131 = ORIENTED_EDGE ( 'NONE', *, *, #225, .T. ) ;
#132 = COORDINATED_UNIVERSAL_TIME_OFFSET ( 5, 0, .BEHIND. ) ;
#133 = DIRECTION ( 'NONE',  ( 0.000000000000000000, 0.000000000000000000, 1.000000000000000000 ) ) ;
#134 = DIMENSIONAL_EXPONENTS ( 1.000000000000000000, 0.000000000000000000, 0.000000000000000000, 0.000000000000000000, 0.000000000000000000, 0.000000000000000000, 0.000000000000000000 ) ;
#135 = DIRECTION ( 'NONE',  ( 0.7071067811865777708, 0.000000000000000000, -0.7071067811865173747 ) ) ;
#136 = VECTOR ( 'NONE', #35, 39.37007874015748143 ) ;
#137 = DIRECTION ( 'NONE',  ( -1.000000000000000000, 0.000000000000000000, 0.000000000000000000 ) ) ;
#138 = PRODUCT_DEFINITION_SHAPE ( 'NONE', 'NONE',  #242 ) ;
#139 = DIRECTION ( 'NONE',  ( 0.000000000000000000, 0.000000000000000000, -1.000000000000000000 ) ) ;
#140 = FACE_OUTER_BOUND ( 'NONE', #105, .T. ) ;
#141 = LINE ( 'NONE', #166, #231 ) ;
#142 = AXIS2_PLACEMENT_3D ( 'NONE', #117, #252, #15 ) ;
#143 = DIRECTION ( 'NONE',  ( 0.000000000000000000, 0.000000000000000000, -1.000000000000000000 ) ) ;
#144 = LINE ( 'NONE', #86, #129 ) ;
#145 = ADVANCED_FACE ( 'NONE', ( #9 ), #53, .T. ) ;
#146 = AXIS2_PLACEMENT_3D ( 'NONE', #40, #164, #18 ) ;
#147 = EDGE_LOOP ( 'NONE', ( #111, #193, #91, #57 ) ) ;
#148 = CLOSED_SHELL ( 'NONE', ( #209, #229, #52, #145, #163, #258, #41, #249 ) ) ;
#149 = ORIENTED_EDGE ( 'NONE', *, *, #216, .T. ) ;
#150 = DATE_AND_TIME ( #68, #154 ) ;
#151 = PERSON_AND_ORGANIZATION ( #65, #36 ) ;
#152 = UNCERTAINTY_MEASURE_WITH_UNIT (LENGTH_MEASURE( 1.000000000000000082E-05 ), #233, 'distance_accuracy_value', 'NONE');
#153 = APPROVAL_DATE_TIME ( #4, #232 ) ;
#154 = LOCAL_TIME ( 8, 29, 48.00000000000000000, #243 ) ;
#155 = DIRECTION ( 'NONE',  ( 0.000000000000000000, 0.000000000000000000, -1.000000000000000000 ) ) ;
#156 = DIRECTION ( 'NONE',  ( -1.000000000000000000, 0.000000000000000000, 0.000000000000000000 ) ) ;
#157 = EDGE_CURVE ( 'NONE', #48, #174, #226, .T. ) ;
#158 = CARTESIAN_POINT ( 'NONE',  ( 12.00000000000000178, 0.000000000000000000, 0.2500000000000000000 ) ) ;
#159 = CIRCLE ( 'NONE', #16, 0.2400000000000148959 ) ;
#160 = AXIS2_PLACEMENT_3D ( 'NONE', #14, #85, #274 ) ;
#161 = CARTESIAN_POINT ( 'NONE',  ( 11.99000000000001442, 0.000000000000000000, 0.000000000000000000 ) ) ;
#162 = CARTESIAN_POINT ( 'NONE',  ( 12.00000000000000178, 2.939152317953829776E-17, -0.2400000000000148959 ) ) ;
#163 = ADVANCED_FACE ( 'NONE', ( #112 ), #30, .T. ) ;
#164 = DIRECTION ( 'NONE',  ( 1.000000000000000000, 0.000000000000000000, 0.000000000000000000 ) ) ;
#165 = LENGTH_MEASURE_WITH_UNIT ( LENGTH_MEASURE( 0.02539999999999999897 ), #62 );
#166 = CARTESIAN_POINT ( 'NONE',  ( -11.98999999999997179, 3.061616997868383018E-17, 0.2500000000000000000 ) ) ;
#167 = AXIS2_PLACEMENT_3D ( 'NONE', #95, #34, #133 ) ;
#168 = CONICAL_SURFACE ( 'NONE', #160, 0.2500000000000000000, 0.7853981633974056464 ) ;
#169 = APPROVAL ( #217, 'UNSPECIFIED' ) ;
#170 = ORIENTED_EDGE ( 'NONE', *, *, #278, .T. ) ;
#171 = VECTOR ( 'NONE', #135, 39.37007874015748143 ) ;
#172 = DATE_TIME_ROLE ( 'creation_date' ) ;
#173 = APPROVAL ( #107, 'UNSPECIFIED' ) ;
#174 = VERTEX_POINT ( 'NONE', #267 ) ;
#175 = CALENDAR_DATE ( 2023, 7, 6 ) ;
#176 = VERTEX_POINT ( 'NONE', #227 ) ;
#177 = CARTESIAN_POINT ( 'NONE',  ( 12.00000000000000178, 0.000000000000000000, 0.000000000000000000 ) ) ;
#178 = CC_DESIGN_PERSON_AND_ORGANIZATION_ASSIGNMENT ( #151, #75, ( #60 ) ) ;
#179 = DIRECTION ( 'NONE',  ( 1.000000000000000000, 0.000000000000000000, 0.000000000000000000 ) ) ;
#180 = DIRECTION ( 'NONE',  ( -0.7071067811865777708, 0.000000000000000000, 0.7071067811865173747 ) ) ;
#181 = AXIS2_PLACEMENT_3D ( 'NONE', #78, #77, #29 ) ;
#182 = CARTESIAN_POINT ( 'NONE',  ( 11.99000000000001442, 3.061616997868382402E-17, -0.2500000000000000000 ) ) ;
#183 = LINE ( 'NONE', #203, #25 ) ;
#184 = FACE_OUTER_BOUND ( 'NONE', #6, .T. ) ;
#185 = DIRECTION ( 'NONE',  ( -1.000000000000000000, -0.000000000000000000, -0.000000000000000000 ) ) ;
#186 = CIRCLE ( 'NONE', #67, 0.2500000000000000000 ) ;
#187 = CC_DESIGN_DATE_AND_TIME_ASSIGNMENT ( #150, #172, ( #242 ) ) ;
#188 = FACE_OUTER_BOUND ( 'NONE', #241, .T. ) ;
#189 = LOCAL_TIME ( 8, 29, 48.00000000000000000, #259 ) ;
#190 = ADVANCED_BREP_SHAPE_REPRESENTATION ( 'NIL08SS-024.000-SL', ( #47, #142 ), #265 ) ;
#191 = APPLICATION_PROTOCOL_DEFINITION ( 'international standard', 'config_control_design', 1994, #218 ) ;
#192 = CIRCLE ( 'NONE', #8, 0.2399999999999711808 ) ;
#193 = ORIENTED_EDGE ( 'NONE', *, *, #45, .T. ) ;
#194 = ORIENTED_EDGE ( 'NONE', *, *, #31, .F. ) ;
#195 = AXIS2_PLACEMENT_3D ( 'NONE', #84, #101, #143 ) ;
#196 = AXIS2_PLACEMENT_3D ( 'NONE', #102, #253, #118 ) ;
#197 = CALENDAR_DATE ( 2023, 7, 6 ) ;
#198 = ORIENTED_EDGE ( 'NONE', *, *, #83, .F. ) ;
#199 = DATE_AND_TIME ( #175, #189 ) ;
#200 = PERSON_AND_ORGANIZATION ( #65, #36 ) ;
#201 = CARTESIAN_POINT ( 'NONE',  ( 12.00000000000000178, 3.000384657911106705E-17, -0.2400000000000148959 ) ) ;
#202 = DIRECTION ( 'NONE',  ( 0.000000000000000000, 0.000000000000000000, -1.000000000000000000 ) ) ;
#203 = CARTESIAN_POINT ( 'NONE',  ( 12.00000000000000178, 0.000000000000000000, 0.2400000000000148959 ) ) ;
#204 = DIRECTION ( 'NONE',  ( 1.000000000000000000, -0.000000000000000000, -0.000000000000000000 ) ) ;
#205 = CC_DESIGN_APPROVAL ( #169, ( #49 ) ) ;
#206 = DIRECTION ( 'NONE',  ( 1.000000000000000000, 0.000000000000000000, 0.000000000000000000 ) ) ;
#207 = CARTESIAN_POINT ( 'NONE',  ( -11.98999999999997179, 0.000000000000000000, 0.000000000000000000 ) ) ;
#208 = APPLICATION_PROTOCOL_DEFINITION ( 'international standard', 'config_control_design', 1994, #93 ) ;
#209 = ADVANCED_FACE ( 'NONE', ( #56 ), #247, .T. ) ;
#210 = MECHANICAL_CONTEXT ( 'NONE', #93, 'mechanical' ) ;
#211 = CC_DESIGN_APPROVAL ( #173, ( #60 ) ) ;
#212 = VERTEX_POINT ( 'NONE', #182 ) ;
#213 = CIRCLE ( 'NONE', #21, 0.2500000000000000000 ) ;
#214 = ORIENTED_EDGE ( 'NONE', *, *, #63, .T. ) ;
#215 = EDGE_LOOP ( 'NONE', ( #214, #236 ) ) ;
#216 = EDGE_CURVE ( 'NONE', #3, #212, #97, .T. ) ;
#217 = APPROVAL_STATUS ( 'not_yet_approved' ) ;
#218 = APPLICATION_CONTEXT ( 'configuration controlled 3d designs of mechanical parts and assemblies' ) ;
#219 = LOCAL_TIME ( 8, 29, 48.00000000000000000, #263 ) ;
#220 = ORIENTED_EDGE ( 'NONE', *, *, #110, .T. ) ;
#221 = AXIS2_PLACEMENT_3D ( 'NONE', #177, #179, #139 ) ;
#222 = PERSON_AND_ORGANIZATION ( #65, #36 ) ;
#223 = EDGE_LOOP ( 'NONE', ( #235, #170, #87, #262 ) ) ;
#224 = APPROVAL_DATE_TIME ( #261, #173 ) ;
#225 = EDGE_CURVE ( 'NONE', #3, #108, #39, .T. ) ;
#226 = LINE ( 'NONE', #270, #171 ) ;
#227 = CARTESIAN_POINT ( 'NONE',  ( -12.00000000000000178, 3.000384657910838616E-17, 0.2399999999999711808 ) ) ;
#228 = CARTESIAN_POINT ( 'NONE',  ( -11.98999999999997179, 0.000000000000000000, 0.000000000000000000 ) ) ;
#229 = ADVANCED_FACE ( 'NONE', ( #188 ), #20, .T. ) ;
#230 = DIRECTION ( 'NONE',  ( -1.000000000000000000, -0.000000000000000000, -0.000000000000000000 ) ) ;
#231 = VECTOR ( 'NONE', #38, 39.37007874015748143 ) ;
#232 = APPROVAL ( #59, 'UNSPECIFIED' ) ;
#233 =( CONVERSION_BASED_UNIT ( 'INCH', #165 ) LENGTH_UNIT ( ) NAMED_UNIT ( #134 ) );
#234 = DIRECTION ( 'NONE',  ( 1.000000000000000000, -0.000000000000000000, -0.000000000000000000 ) ) ;
#235 = ORIENTED_EDGE ( 'NONE', *, *, #71, .F. ) ;
#236 = ORIENTED_EDGE ( 'NONE', *, *, #71, .T. ) ;
#237 = EDGE_CURVE ( 'NONE', #212, #174, #144, .T. ) ;
#238 = ORIENTED_EDGE ( 'NONE', *, *, #63, .F. ) ;
#239 = PERSON_AND_ORGANIZATION ( #65, #36 ) ;
#240 = PERSON_AND_ORGANIZATION_ROLE ( 'classification_officer' ) ;
#241 = EDGE_LOOP ( 'NONE', ( #72, #149, #194, #198 ) ) ;
#242 = PRODUCT_DEFINITION ( 'UNKNOWN', '', #60, #54 ) ;
#243 = COORDINATED_UNIVERSAL_TIME_OFFSET ( 5, 0, .BEHIND. ) ;
#244 = CARTESIAN_POINT ( 'NONE',  ( 12.00000000000000178, 0.000000000000000000, 0.000000000000000000 ) ) ;
#245 = LINE ( 'NONE', #158, #136 ) ;
#246 = CYLINDRICAL_SURFACE ( 'NONE', #37, 0.2500000000000000000 ) ;
#247 = CONICAL_SURFACE ( 'NONE', #61, 0.2500000000000000000, 0.7853981633974056464 ) ;
#248 = DIRECTION ( 'NONE',  ( -1.000000000000000000, -0.000000000000000000, -0.000000000000000000 ) ) ;
#249 = ADVANCED_FACE ( 'NONE', ( #184 ), #168, .T. ) ;
#250 = DIRECTION ( 'NONE',  ( 0.000000000000000000, 0.000000000000000000, -1.000000000000000000 ) ) ;
#251 = AXIS2_PLACEMENT_3D ( 'NONE', #113, #55, #94 ) ;
#252 = DIRECTION ( 'NONE',  ( 0.000000000000000000, 0.000000000000000000, 1.000000000000000000 ) ) ;
#253 = DIRECTION ( 'NONE',  ( -1.000000000000000000, 0.000000000000000000, 0.000000000000000000 ) ) ;
#254 =( NAMED_UNIT ( * ) PLANE_ANGLE_UNIT ( ) SI_UNIT ( $, .RADIAN. ) );
#255 = LOCAL_TIME ( 8, 29, 48.00000000000000000, #126 ) ;
#256 = AXIS2_PLACEMENT_3D ( 'NONE', #100, #116, #250 ) ;
#257 = AXIS2_PLACEMENT_3D ( 'NONE', #207, #234, #273 ) ;
#258 = ADVANCED_FACE ( 'NONE', ( #275 ), #64, .F. ) ;
#259 = COORDINATED_UNIVERSAL_TIME_OFFSET ( 5, 0, .BEHIND. ) ;
#260 = EDGE_LOOP ( 'NONE', ( #264, #115, #43, #122 ) ) ;
#261 = DATE_AND_TIME ( #2, #219 ) ;
#262 = ORIENTED_EDGE ( 'NONE', *, *, #157, .F. ) ;
#263 = COORDINATED_UNIVERSAL_TIME_OFFSET ( 5, 0, .BEHIND. ) ;
#264 = ORIENTED_EDGE ( 'NONE', *, *, #31, .T. ) ;
#265 =( GEOMETRIC_REPRESENTATION_CONTEXT ( 3 ) GLOBAL_UNCERTAINTY_ASSIGNED_CONTEXT ( ( #152 ) ) GLOBAL_UNIT_ASSIGNED_CONTEXT ( ( #233, #254, #121 ) ) REPRESENTATION_CONTEXT ( 'NONE', 'WORKASPACE' ) );
#266 = FACE_OUTER_BOUND ( 'NONE', #260, .T. ) ;
#267 = CARTESIAN_POINT ( 'NONE',  ( -11.98999999999997179, 3.061616997868382402E-17, -0.2500000000000000000 ) ) ;
#268 = EDGE_CURVE ( 'NONE', #174, #42, #1, .T. ) ;
#269 = CARTESIAN_POINT ( 'NONE',  ( 12.00000000000000178, 0.000000000000000000, 0.2400000000000148959 ) ) ;
#270 = CARTESIAN_POINT ( 'NONE',  ( -11.98999999999997179, 0.000000000000000000, -0.2500000000000000000 ) ) ;
#271 = CARTESIAN_POINT ( 'NONE',  ( 11.99000000000001442, 0.000000000000000000, 0.2500000000000000000 ) ) ;
#272 = CC_DESIGN_DATE_AND_TIME_ASSIGNMENT ( #46, #128, ( #49 ) ) ;
#273 = DIRECTION ( 'NONE',  ( 0.000000000000000000, 0.000000000000000000, -1.000000000000000000 ) ) ;
#274 = DIRECTION ( 'NONE',  ( 0.000000000000000000, 0.000000000000000000, -1.000000000000000000 ) ) ;
#275 = FACE_OUTER_BOUND ( 'NONE', #215, .T. ) ;
#276 = CIRCLE ( 'NONE', #256, 0.2399999999999711808 ) ;
#277 = APPROVAL_ROLE ( '' ) ;
#278 = EDGE_CURVE ( 'NONE', #176, #42, #141, .T. ) ;
ENDSEC;
END-ISO-10303-21;
