ISO-10303-21;
HEADER;
FILE_DESCRIPTION (( 'STEP AP203' ),
    '1' );
FILE_NAME ('NIL08SS-012.000-SL.step',
    '2023-06-07T12:29:43',
    ( '' ),
    ( '' ),
    'SwSTEP 2.0',
    'SolidWorks 2021',
    '' );
FILE_SCHEMA (( 'CONFIG_CONTROL_DESIGN' ));
ENDSEC;

DATA;
#1 = AXIS2_PLACEMENT_3D ( 'NONE', #218, #238, #134 ) ;
#2 =( CONVERSION_BASED_UNIT ( 'INCH', #219 ) LENGTH_UNIT ( ) NAMED_UNIT ( #5 ) );
#3 = DIRECTION ( 'NONE',  ( 0.000000000000000000, 0.000000000000000000, 1.000000000000000000 ) ) ;
#4 = PERSON_AND_ORGANIZATION_ROLE ( 'creator' ) ;
#5 = DIMENSIONAL_EXPONENTS ( 1.000000000000000000, 0.000000000000000000, 0.000000000000000000, 0.000000000000000000, 0.000000000000000000, 0.000000000000000000, 0.000000000000000000 ) ;
#6 = AXIS2_PLACEMENT_3D ( 'NONE', #211, #37, #69 ) ;
#7 = CC_DESIGN_PERSON_AND_ORGANIZATION_ASSIGNMENT ( #49, #136, ( #157 ) ) ;
#8 = CARTESIAN_POINT ( 'NONE',  ( -6.000000000000000888, 0.000000000000000000, 0.000000000000000000 ) ) ;
#9 = VERTEX_POINT ( 'NONE', #82 ) ;
#10 = DATE_AND_TIME ( #120, #25 ) ;
#11 = ORIENTED_EDGE ( 'NONE', *, *, #110, .F. ) ;
#12 = AXIS2_PLACEMENT_3D ( 'NONE', #234, #128, #152 ) ;
#13 = ORIENTED_EDGE ( 'NONE', *, *, #72, .T. ) ;
#14 = EDGE_LOOP ( 'NONE', ( #185, #141, #181, #269 ) ) ;
#15 = COORDINATED_UNIVERSAL_TIME_OFFSET ( 5, 0, .BEHIND. ) ;
#16 = ORIENTED_EDGE ( 'NONE', *, *, #88, .T. ) ;
#17 = CYLINDRICAL_SURFACE ( 'NONE', #52, 0.2500000000000000000 ) ;
#18 = CARTESIAN_POINT ( 'NONE',  ( 6.000000000000000888, 0.000000000000000000, 0.000000000000000000 ) ) ;
#19 = CARTESIAN_POINT ( 'NONE',  ( 6.000000000000000888, 0.000000000000000000, 0.2400000000000072353 ) ) ;
#20 = DIRECTION ( 'NONE',  ( 1.000000000000000000, -0.000000000000000000, -0.000000000000000000 ) ) ;
#21 = FACE_OUTER_BOUND ( 'NONE', #33, .T. ) ;
#22 = EDGE_CURVE ( 'NONE', #56, #30, #50, .T. ) ;
#23 = APPLICATION_PROTOCOL_DEFINITION ( 'international standard', 'config_control_design', 1994, #42 ) ;
#24 = APPROVAL_PERSON_ORGANIZATION ( #81, #161, #34 ) ;
#25 = LOCAL_TIME ( 8, 29, 43.00000000000000000, #55 ) ;
#26 = CARTESIAN_POINT ( 'NONE',  ( -6.000000000000000888, 3.000384657910945852E-17, 0.2399999999999886668 ) ) ;
#27 = COORDINATED_UNIVERSAL_TIME_OFFSET ( 5, 0, .BEHIND. ) ;
#28 = CALENDAR_DATE ( 2023, 7, 6 ) ;
#29 = ORIENTED_EDGE ( 'NONE', *, *, #129, .T. ) ;
#30 = VERTEX_POINT ( 'NONE', #127 ) ;
#31 = VECTOR ( 'NONE', #93, 39.37007874015748143 ) ;
#32 = PERSON_AND_ORGANIZATION ( #70, #163 ) ;
#33 = EDGE_LOOP ( 'NONE', ( #148, #86, #29, #16 ) ) ;
#34 = APPROVAL_ROLE ( '' ) ;
#35 = CARTESIAN_POINT ( 'NONE',  ( -5.989999999999988667, 0.000000000000000000, 0.000000000000000000 ) ) ;
#36 = CC_DESIGN_PERSON_AND_ORGANIZATION_ASSIGNMENT ( #166, #243, ( #184 ) ) ;
#37 = DIRECTION ( 'NONE',  ( -1.000000000000000000, 0.000000000000000000, 0.000000000000000000 ) ) ;
#38 = LOCAL_TIME ( 8, 29, 43.00000000000000000, #27 ) ;
#39 = UNCERTAINTY_MEASURE_WITH_UNIT (LENGTH_MEASURE( 1.000000000000000082E-05 ), #2, 'distance_accuracy_value', 'NONE');
#40 = PRODUCT_DEFINITION ( 'UNKNOWN', '', #184, #48 ) ;
#41 = CARTESIAN_POINT ( 'NONE',  ( 5.990000000000006430, 0.000000000000000000, 0.000000000000000000 ) ) ;
#42 = APPLICATION_CONTEXT ( 'configuration controlled 3d designs of mechanical parts and assemblies' ) ;
#43 = MANIFOLD_SOLID_BREP ( 'Chamfer1', #111 ) ;
#44 = DIRECTION ( 'NONE',  ( 0.000000000000000000, 0.000000000000000000, -1.000000000000000000 ) ) ;
#45 = DIRECTION ( 'NONE',  ( 0.000000000000000000, 0.000000000000000000, -1.000000000000000000 ) ) ;
#46 = CC_DESIGN_APPROVAL ( #161, ( #155 ) ) ;
#47 = CYLINDRICAL_SURFACE ( 'NONE', #145, 0.2500000000000000000 ) ;
#48 = DESIGN_CONTEXT ( 'detailed design', #113, 'design' ) ;
#49 = PERSON_AND_ORGANIZATION ( #70, #163 ) ;
#50 = CIRCLE ( 'NONE', #117, 0.2500000000000000000 ) ;
#51 = LOCAL_TIME ( 8, 29, 43.00000000000000000, #15 ) ;
#52 = AXIS2_PLACEMENT_3D ( 'NONE', #68, #216, #109 ) ;
#53 = FACE_OUTER_BOUND ( 'NONE', #105, .T. ) ;
#54 = ADVANCED_FACE ( 'NONE', ( #210 ), #229, .T. ) ;
#55 = COORDINATED_UNIVERSAL_TIME_OFFSET ( 5, 0, .BEHIND. ) ;
#56 = VERTEX_POINT ( 'NONE', #194 ) ;
#57 = ADVANCED_FACE ( 'NONE', ( #131 ), #112, .T. ) ;
#58 = EDGE_LOOP ( 'NONE', ( #11, #101, #143, #149 ) ) ;
#59 = ORIENTED_EDGE ( 'NONE', *, *, #22, .F. ) ;
#60 = CONICAL_SURFACE ( 'NONE', #261, 0.2500000000000000000, 0.7853981633974056464 ) ;
#61 = DATE_TIME_ROLE ( 'creation_date' ) ;
#62 = EDGE_LOOP ( 'NONE', ( #122, #226, #222, #208 ) ) ;
#63 = VERTEX_POINT ( 'NONE', #114 ) ;
#64 = LINE ( 'NONE', #151, #31 ) ;
#65 = AXIS2_PLACEMENT_3D ( 'NONE', #251, #20, #45 ) ;
#66 = DIRECTION ( 'NONE',  ( -1.000000000000000000, 0.000000000000000000, 0.000000000000000000 ) ) ;
#67 = APPROVAL_PERSON_ORGANIZATION ( #140, #233, #225 ) ;
#68 = CARTESIAN_POINT ( 'NONE',  ( 6.000000000000000888, 0.000000000000000000, 0.000000000000000000 ) ) ;
#69 = DIRECTION ( 'NONE',  ( 0.000000000000000000, 0.000000000000000000, -1.000000000000000000 ) ) ;
#70 = PERSON ( 'UNSPECIFIED', 'UNSPECIFIED', 'UNSPECIFIED', ('UNSPECIFIED'), ('UNSPECIFIED'), ('UNSPECIFIED') ) ;
#71 = DIRECTION ( 'NONE',  ( 1.000000000000000000, 0.000000000000000000, 0.000000000000000000 ) ) ;
#72 = EDGE_CURVE ( 'NONE', #100, #63, #171, .T. ) ;
#73 = DIRECTION ( 'NONE',  ( -1.000000000000000000, -0.000000000000000000, -0.000000000000000000 ) ) ;
#74 = APPROVAL_STATUS ( 'not_yet_approved' ) ;
#75 = AXIS2_PLACEMENT_3D ( 'NONE', #173, #271, #278 ) ;
#76 =( LENGTH_UNIT ( ) NAMED_UNIT ( * ) SI_UNIT ( $, .METRE. ) );
#77 = LINE ( 'NONE', #160, #193 ) ;
#78 = ORIENTED_EDGE ( 'NONE', *, *, #255, .T. ) ;
#79 = ADVANCED_FACE ( 'NONE', ( #228 ), #130, .F. ) ;
#80 = CIRCLE ( 'NONE', #12, 0.2500000000000000000 ) ;
#81 = PERSON_AND_ORGANIZATION ( #70, #163 ) ;
#82 = CARTESIAN_POINT ( 'NONE',  ( -6.000000000000000888, 0.000000000000000000, -0.2399999999999886668 ) ) ;
#83 = EDGE_CURVE ( 'NONE', #100, #186, #195, .T. ) ;
#84 = PERSON_AND_ORGANIZATION ( #70, #163 ) ;
#85 = PERSON_AND_ORGANIZATION_ROLE ( 'design_supplier' ) ;
#86 = ORIENTED_EDGE ( 'NONE', *, *, #94, .T. ) ;
#87 = FACE_OUTER_BOUND ( 'NONE', #58, .T. ) ;
#88 = EDGE_CURVE ( 'NONE', #30, #56, #80, .T. ) ;
#89 = CARTESIAN_POINT ( 'NONE',  ( 6.000000000000000888, 0.000000000000000000, 0.2500000000000000000 ) ) ;
#90 = VECTOR ( 'NONE', #264, 39.37007874015748143 ) ;
#91 = CARTESIAN_POINT ( 'NONE',  ( 6.000000000000000888, 0.000000000000000000, 0.000000000000000000 ) ) ;
#92 = DIRECTION ( 'NONE',  ( 0.000000000000000000, 0.000000000000000000, -1.000000000000000000 ) ) ;
#93 = DIRECTION ( 'NONE',  ( -0.7071067811865777708, 8.659560562354564312E-17, -0.7071067811865173747 ) ) ;
#94 = EDGE_CURVE ( 'NONE', #183, #186, #241, .T. ) ;
#95 = MECHANICAL_CONTEXT ( 'NONE', #42, 'mechanical' ) ;
#96 = AXIS2_PLACEMENT_3D ( 'NONE', #91, #188, #273 ) ;
#97 = DIRECTION ( 'NONE',  ( 1.000000000000000000, -0.000000000000000000, -0.000000000000000000 ) ) ;
#98 = APPROVAL_DATE_TIME ( #245, #233 ) ;
#99 = ADVANCED_FACE ( 'NONE', ( #133 ), #17, .T. ) ;
#100 = VERTEX_POINT ( 'NONE', #19 ) ;
#101 = ORIENTED_EDGE ( 'NONE', *, *, #175, .T. ) ;
#102 = PRODUCT_RELATED_PRODUCT_CATEGORY ( 'detail', '', ( #157 ) ) ;
#103 = APPROVAL_PERSON_ORGANIZATION ( #260, #268, #240 ) ;
#104 = VECTOR ( 'NONE', #232, 39.37007874015748143 ) ;
#105 = EDGE_LOOP ( 'NONE', ( #244, #78, #59, #167 ) ) ;
#106 = ORIENTED_EDGE ( 'NONE', *, *, #22, .T. ) ;
#107 = APPROVAL_STATUS ( 'not_yet_approved' ) ;
#108 = ORIENTED_EDGE ( 'NONE', *, *, #150, .T. ) ;
#109 = DIRECTION ( 'NONE',  ( 0.000000000000000000, 0.000000000000000000, 1.000000000000000000 ) ) ;
#110 = EDGE_CURVE ( 'NONE', #63, #100, #207, .T. ) ;
#111 = CLOSED_SHELL ( 'NONE', ( #217, #123, #99, #272, #57, #79, #54, #156 ) ) ;
#112 = PLANE ( 'NONE',  #252 ) ;
#113 = APPLICATION_CONTEXT ( 'configuration controlled 3d designs of mechanical parts and assemblies' ) ;
#114 = CARTESIAN_POINT ( 'NONE',  ( 6.000000000000000888, 3.000384657911059867E-17, -0.2400000000000072353 ) ) ;
#115 = ADVANCED_BREP_SHAPE_REPRESENTATION ( 'NIL08SS-012.000-SL', ( #43, #1 ), #132 ) ;
#116 = EDGE_CURVE ( 'NONE', #186, #183, #220, .T. ) ;
#117 = AXIS2_PLACEMENT_3D ( 'NONE', #35, #165, #246 ) ;
#118 = LINE ( 'NONE', #197, #90 ) ;
#119 = CALENDAR_DATE ( 2023, 7, 6 ) ;
#120 = CALENDAR_DATE ( 2023, 7, 6 ) ;
#121 = APPROVAL_STATUS ( 'not_yet_approved' ) ;
#122 = ORIENTED_EDGE ( 'NONE', *, *, #255, .F. ) ;
#123 = ADVANCED_FACE ( 'NONE', ( #87 ), #263, .T. ) ;
#124 = AXIS2_PLACEMENT_3D ( 'NONE', #212, #71, #214 ) ;
#125 = CIRCLE ( 'NONE', #192, 0.2399999999999886668 ) ;
#126 = SHAPE_DEFINITION_REPRESENTATION ( #235, #115 ) ;
#127 = CARTESIAN_POINT ( 'NONE',  ( -5.989999999999988667, 0.000000000000000000, 0.2500000000000000000 ) ) ;
#128 = DIRECTION ( 'NONE',  ( 1.000000000000000000, -0.000000000000000000, -0.000000000000000000 ) ) ;
#129 = EDGE_CURVE ( 'NONE', #186, #30, #256, .T. ) ;
#130 = PLANE ( 'NONE',  #124 ) ;
#131 = FACE_OUTER_BOUND ( 'NONE', #266, .T. ) ;
#132 =( GEOMETRIC_REPRESENTATION_CONTEXT ( 3 ) GLOBAL_UNCERTAINTY_ASSIGNED_CONTEXT ( ( #39 ) ) GLOBAL_UNIT_ASSIGNED_CONTEXT ( ( #2, #221, #259 ) ) REPRESENTATION_CONTEXT ( 'NONE', 'WORKASPACE' ) );
#133 = FACE_OUTER_BOUND ( 'NONE', #187, .T. ) ;
#134 = DIRECTION ( 'NONE',  ( 1.000000000000000000, 0.000000000000000000, 0.000000000000000000 ) ) ;
#135 = CC_DESIGN_PERSON_AND_ORGANIZATION_ASSIGNMENT ( #84, #85, ( #184 ) ) ;
#136 = PERSON_AND_ORGANIZATION_ROLE ( 'design_owner' ) ;
#137 = LOCAL_TIME ( 8, 29, 43.00000000000000000, #144 ) ;
#138 = CARTESIAN_POINT ( 'NONE',  ( 6.000000000000000888, 0.000000000000000000, 0.000000000000000000 ) ) ;
#139 = DIRECTION ( 'NONE',  ( 0.000000000000000000, 0.000000000000000000, -1.000000000000000000 ) ) ;
#140 = PERSON_AND_ORGANIZATION ( #70, #163 ) ;
#141 = ORIENTED_EDGE ( 'NONE', *, *, #72, .F. ) ;
#142 = EDGE_CURVE ( 'NONE', #9, #56, #168, .T. ) ;
#143 = ORIENTED_EDGE ( 'NONE', *, *, #116, .F. ) ;
#144 = COORDINATED_UNIVERSAL_TIME_OFFSET ( 5, 0, .BEHIND. ) ;
#145 = AXIS2_PLACEMENT_3D ( 'NONE', #138, #73, #3 ) ;
#146 = CONICAL_SURFACE ( 'NONE', #65, 0.2500000000000000000, 0.7853981633974056464 ) ;
#147 = PERSON_AND_ORGANIZATION_ROLE ( 'classification_officer' ) ;
#148 = ORIENTED_EDGE ( 'NONE', *, *, #237, .F. ) ;
#149 = ORIENTED_EDGE ( 'NONE', *, *, #83, .F. ) ;
#150 = EDGE_CURVE ( 'NONE', #9, #205, #223, .T. ) ;
#151 = CARTESIAN_POINT ( 'NONE',  ( 6.000000000000000888, 2.939152317953736099E-17, -0.2400000000000072353 ) ) ;
#152 = DIRECTION ( 'NONE',  ( 0.000000000000000000, 0.000000000000000000, -1.000000000000000000 ) ) ;
#153 = DIRECTION ( 'NONE',  ( 0.7071067811865777708, 0.000000000000000000, -0.7071067811865173747 ) ) ;
#154 = CARTESIAN_POINT ( 'NONE',  ( -5.989999999999988667, 0.000000000000000000, -0.2500000000000000000 ) ) ;
#155 = SECURITY_CLASSIFICATION ( '', '', #247 ) ;
#156 = ADVANCED_FACE ( 'NONE', ( #250 ), #146, .T. ) ;
#157 = PRODUCT ( 'NIL08SS-012.000-SL', 'NIL08SS-012.000-SL', '', ( #95 ) ) ;
#158 = DIRECTION ( 'NONE',  ( -1.000000000000000000, -0.000000000000000000, -0.000000000000000000 ) ) ;
#159 = CC_DESIGN_DATE_AND_TIME_ASSIGNMENT ( #10, #61, ( #40 ) ) ;
#160 = CARTESIAN_POINT ( 'NONE',  ( -5.989999999999988667, 3.061616997868383018E-17, 0.2500000000000000000 ) ) ;
#161 = APPROVAL ( #121, 'UNSPECIFIED' ) ;
#162 = CC_DESIGN_SECURITY_CLASSIFICATION ( #155, ( #184 ) ) ;
#163 = ORGANIZATION ( 'UNSPECIFIED', 'UNSPECIFIED', '' ) ;
#164 = CALENDAR_DATE ( 2023, 7, 6 ) ;
#165 = DIRECTION ( 'NONE',  ( 1.000000000000000000, -0.000000000000000000, -0.000000000000000000 ) ) ;
#166 = PERSON_AND_ORGANIZATION ( #70, #163 ) ;
#167 = ORIENTED_EDGE ( 'NONE', *, *, #142, .F. ) ;
#168 = LINE ( 'NONE', #154, #215 ) ;
#169 = DIRECTION ( 'NONE',  ( 0.000000000000000000, 0.000000000000000000, 1.000000000000000000 ) ) ;
#170 = VECTOR ( 'NONE', #277, 39.37007874015748143 ) ;
#171 = CIRCLE ( 'NONE', #75, 0.2400000000000072353 ) ;
#172 = DIRECTION ( 'NONE',  ( -1.000000000000000000, 0.000000000000000000, 0.000000000000000000 ) ) ;
#173 = CARTESIAN_POINT ( 'NONE',  ( 6.000000000000000888, 0.000000000000000000, 0.000000000000000000 ) ) ;
#174 = CARTESIAN_POINT ( 'NONE',  ( 6.000000000000000888, 0.000000000000000000, 0.000000000000000000 ) ) ;
#175 = EDGE_CURVE ( 'NONE', #63, #183, #64, .T. ) ;
#176 = APPLICATION_PROTOCOL_DEFINITION ( 'international standard', 'config_control_design', 1994, #113 ) ;
#177 = DATE_AND_TIME ( #119, #38 ) ;
#178 = AXIS2_PLACEMENT_3D ( 'NONE', #18, #254, #169 ) ;
#179 = DIRECTION ( 'NONE',  ( 0.000000000000000000, 0.000000000000000000, -1.000000000000000000 ) ) ;
#180 = COORDINATED_UNIVERSAL_TIME_OFFSET ( 5, 0, .BEHIND. ) ;
#181 = ORIENTED_EDGE ( 'NONE', *, *, #83, .T. ) ;
#182 = APPROVAL_DATE_TIME ( #209, #161 ) ;
#183 = VERTEX_POINT ( 'NONE', #199 ) ;
#184 = PRODUCT_DEFINITION_FORMATION_WITH_SPECIFIED_SOURCE ( 'ANY', '', #157, .NOT_KNOWN. ) ;
#185 = ORIENTED_EDGE ( 'NONE', *, *, #175, .F. ) ;
#186 = VERTEX_POINT ( 'NONE', #202 ) ;
#187 = EDGE_LOOP ( 'NONE', ( #249, #206, #106, #224 ) ) ;
#188 = DIRECTION ( 'NONE',  ( 1.000000000000000000, 0.000000000000000000, 0.000000000000000000 ) ) ;
#189 = CARTESIAN_POINT ( 'NONE',  ( -6.000000000000000888, 0.000000000000000000, 0.000000000000000000 ) ) ;
#190 = EDGE_CURVE ( 'NONE', #205, #9, #125, .T. ) ;
#191 = DIRECTION ( 'NONE',  ( 1.000000000000000000, 0.000000000000000000, 0.000000000000000000 ) ) ;
#192 = AXIS2_PLACEMENT_3D ( 'NONE', #8, #158, #139 ) ;
#193 = VECTOR ( 'NONE', #242, 39.37007874015748143 ) ;
#194 = CARTESIAN_POINT ( 'NONE',  ( -5.989999999999988667, 3.061616997868382402E-17, -0.2500000000000000000 ) ) ;
#195 = LINE ( 'NONE', #257, #170 ) ;
#196 = CC_DESIGN_APPROVAL ( #233, ( #184 ) ) ;
#197 = CARTESIAN_POINT ( 'NONE',  ( 6.000000000000000888, 3.061616997868382402E-17, -0.2500000000000000000 ) ) ;
#198 = CC_DESIGN_APPROVAL ( #268, ( #40 ) ) ;
#199 = CARTESIAN_POINT ( 'NONE',  ( 5.990000000000006430, 3.061616997868382402E-17, -0.2500000000000000000 ) ) ;
#200 = CC_DESIGN_PERSON_AND_ORGANIZATION_ASSIGNMENT ( #262, #4, ( #40 ) ) ;
#201 = APPROVAL_DATE_TIME ( #177, #268 ) ;
#202 = CARTESIAN_POINT ( 'NONE',  ( 5.990000000000006430, 0.000000000000000000, 0.2500000000000000000 ) ) ;
#203 = EDGE_LOOP ( 'NONE', ( #108, #227 ) ) ;
#204 = DATE_TIME_ROLE ( 'classification_date' ) ;
#205 = VERTEX_POINT ( 'NONE', #26 ) ;
#206 = ORIENTED_EDGE ( 'NONE', *, *, #237, .T. ) ;
#207 = CIRCLE ( 'NONE', #96, 0.2400000000000072353 ) ;
#208 = ORIENTED_EDGE ( 'NONE', *, *, #88, .F. ) ;
#209 = DATE_AND_TIME ( #164, #51 ) ;
#210 = FACE_OUTER_BOUND ( 'NONE', #14, .T. ) ;
#211 = CARTESIAN_POINT ( 'NONE',  ( 5.990000000000006430, 0.000000000000000000, 0.000000000000000000 ) ) ;
#212 = CARTESIAN_POINT ( 'NONE',  ( -6.000000000000000888, 0.000000000000000000, 0.000000000000000000 ) ) ;
#213 = CARTESIAN_POINT ( 'NONE',  ( 6.000000000000000888, 0.000000000000000000, 0.000000000000000000 ) ) ;
#214 = DIRECTION ( 'NONE',  ( 0.000000000000000000, 0.000000000000000000, -1.000000000000000000 ) ) ;
#215 = VECTOR ( 'NONE', #153, 39.37007874015748143 ) ;
#216 = DIRECTION ( 'NONE',  ( -1.000000000000000000, -0.000000000000000000, -0.000000000000000000 ) ) ;
#217 = ADVANCED_FACE ( 'NONE', ( #53 ), #60, .T. ) ;
#218 = CARTESIAN_POINT ( 'NONE',  ( 0.000000000000000000, 0.000000000000000000, 0.000000000000000000 ) ) ;
#219 = LENGTH_MEASURE_WITH_UNIT ( LENGTH_MEASURE( 0.02539999999999999897 ), #76 );
#220 = CIRCLE ( 'NONE', #276, 0.2500000000000000000 ) ;
#221 =( NAMED_UNIT ( * ) PLANE_ANGLE_UNIT ( ) SI_UNIT ( $, .RADIAN. ) );
#222 = ORIENTED_EDGE ( 'NONE', *, *, #142, .T. ) ;
#223 = CIRCLE ( 'NONE', #239, 0.2399999999999886668 ) ;
#224 = ORIENTED_EDGE ( 'NONE', *, *, #129, .F. ) ;
#225 = APPROVAL_ROLE ( '' ) ;
#226 = ORIENTED_EDGE ( 'NONE', *, *, #150, .F. ) ;
#227 = ORIENTED_EDGE ( 'NONE', *, *, #190, .T. ) ;
#228 = FACE_OUTER_BOUND ( 'NONE', #203, .T. ) ;
#229 = CONICAL_SURFACE ( 'NONE', #267, 0.2400000000000072353, 0.7853981633974056464 ) ;
#230 = DIRECTION ( 'NONE',  ( 0.000000000000000000, 0.000000000000000000, 1.000000000000000000 ) ) ;
#231 = DIRECTION ( 'NONE',  ( -1.000000000000000000, -0.000000000000000000, -0.000000000000000000 ) ) ;
#232 = DIRECTION ( 'NONE',  ( -1.000000000000000000, -0.000000000000000000, -0.000000000000000000 ) ) ;
#233 = APPROVAL ( #107, 'UNSPECIFIED' ) ;
#234 = CARTESIAN_POINT ( 'NONE',  ( -5.989999999999988667, 0.000000000000000000, 0.000000000000000000 ) ) ;
#235 = PRODUCT_DEFINITION_SHAPE ( 'NONE', 'NONE',  #40 ) ;
#236 = CC_DESIGN_DATE_AND_TIME_ASSIGNMENT ( #270, #204, ( #155 ) ) ;
#237 = EDGE_CURVE ( 'NONE', #183, #56, #118, .T. ) ;
#238 = DIRECTION ( 'NONE',  ( 0.000000000000000000, 0.000000000000000000, 1.000000000000000000 ) ) ;
#239 = AXIS2_PLACEMENT_3D ( 'NONE', #189, #231, #44 ) ;
#240 = APPROVAL_ROLE ( '' ) ;
#241 = CIRCLE ( 'NONE', #6, 0.2500000000000000000 ) ;
#242 = DIRECTION ( 'NONE',  ( 0.7071067811865777708, 8.659560562354564312E-17, 0.7071067811865173747 ) ) ;
#243 = PERSON_AND_ORGANIZATION_ROLE ( 'creator' ) ;
#244 = ORIENTED_EDGE ( 'NONE', *, *, #190, .F. ) ;
#245 = DATE_AND_TIME ( #265, #137 ) ;
#246 = DIRECTION ( 'NONE',  ( 0.000000000000000000, 0.000000000000000000, -1.000000000000000000 ) ) ;
#247 = SECURITY_CLASSIFICATION_LEVEL ( 'unclassified' ) ;
#248 = ORIENTED_EDGE ( 'NONE', *, *, #110, .T. ) ;
#249 = ORIENTED_EDGE ( 'NONE', *, *, #116, .T. ) ;
#250 = FACE_OUTER_BOUND ( 'NONE', #62, .T. ) ;
#251 = CARTESIAN_POINT ( 'NONE',  ( -5.989999999999988667, 0.000000000000000000, 0.000000000000000000 ) ) ;
#252 = AXIS2_PLACEMENT_3D ( 'NONE', #174, #191, #92 ) ;
#253 = LOCAL_TIME ( 8, 29, 43.00000000000000000, #180 ) ;
#254 = DIRECTION ( 'NONE',  ( -1.000000000000000000, 0.000000000000000000, 0.000000000000000000 ) ) ;
#255 = EDGE_CURVE ( 'NONE', #205, #30, #77, .T. ) ;
#256 = LINE ( 'NONE', #89, #104 ) ;
#257 = CARTESIAN_POINT ( 'NONE',  ( 6.000000000000000888, 0.000000000000000000, 0.2400000000000072353 ) ) ;
#258 = CARTESIAN_POINT ( 'NONE',  ( -5.989999999999988667, 0.000000000000000000, 0.000000000000000000 ) ) ;
#259 =( NAMED_UNIT ( * ) SI_UNIT ( $, .STERADIAN. ) SOLID_ANGLE_UNIT ( ) );
#260 = PERSON_AND_ORGANIZATION ( #70, #163 ) ;
#261 = AXIS2_PLACEMENT_3D ( 'NONE', #258, #97, #179 ) ;
#262 = PERSON_AND_ORGANIZATION ( #70, #163 ) ;
#263 = CONICAL_SURFACE ( 'NONE', #178, 0.2400000000000072353, 0.7853981633974056464 ) ;
#264 = DIRECTION ( 'NONE',  ( -1.000000000000000000, -0.000000000000000000, -0.000000000000000000 ) ) ;
#265 = CALENDAR_DATE ( 2023, 7, 6 ) ;
#266 = EDGE_LOOP ( 'NONE', ( #13, #248 ) ) ;
#267 = AXIS2_PLACEMENT_3D ( 'NONE', #213, #66, #230 ) ;
#268 = APPROVAL ( #74, 'UNSPECIFIED' ) ;
#269 = ORIENTED_EDGE ( 'NONE', *, *, #94, .F. ) ;
#270 = DATE_AND_TIME ( #28, #253 ) ;
#271 = DIRECTION ( 'NONE',  ( 1.000000000000000000, 0.000000000000000000, 0.000000000000000000 ) ) ;
#272 = ADVANCED_FACE ( 'NONE', ( #21 ), #47, .T. ) ;
#273 = DIRECTION ( 'NONE',  ( 0.000000000000000000, 0.000000000000000000, -1.000000000000000000 ) ) ;
#274 = CC_DESIGN_PERSON_AND_ORGANIZATION_ASSIGNMENT ( #32, #147, ( #155 ) ) ;
#275 = DIRECTION ( 'NONE',  ( 0.000000000000000000, 0.000000000000000000, -1.000000000000000000 ) ) ;
#276 = AXIS2_PLACEMENT_3D ( 'NONE', #41, #172, #275 ) ;
#277 = DIRECTION ( 'NONE',  ( -0.7071067811865777708, 0.000000000000000000, 0.7071067811865173747 ) ) ;
#278 = DIRECTION ( 'NONE',  ( 0.000000000000000000, 0.000000000000000000, -1.000000000000000000 ) ) ;
ENDSEC;
END-ISO-10303-21;
