ISO-10303-21;
HEADER;
FILE_DESCRIPTION (( 'STEP AP203' ),
    '1' );
FILE_NAME ('NIL08-036.000-SL.step',
    '2023-06-07T12:29:38',
    ( '' ),
    ( '' ),
    'SwSTEP 2.0',
    'SolidWorks 2021',
    '' );
FILE_SCHEMA (( 'CONFIG_CONTROL_DESIGN' ));
ENDSEC;

DATA;
#1 = FACE_OUTER_BOUND ( 'NONE', #210, .T. ) ;
#2 = DIRECTION ( 'NONE',  ( 0.000000000000000000, 0.000000000000000000, -1.000000000000000000 ) ) ;
#3 = FACE_OUTER_BOUND ( 'NONE', #166, .T. ) ;
#4 = CARTESIAN_POINT ( 'NONE',  ( 18.00000000000000000, 0.000000000000000000, 0.000000000000000000 ) ) ;
#5 = VECTOR ( 'NONE', #144, 39.37007874015748143 ) ;
#6 = AXIS2_PLACEMENT_3D ( 'NONE', #110, #247, #74 ) ;
#7 =( NAMED_UNIT ( * ) SI_UNIT ( $, .STERADIAN. ) SOLID_ANGLE_UNIT ( ) );
#8 = PRODUCT_DEFINITION ( 'UNKNOWN', '', #23, #44 ) ;
#9 = PERSON_AND_ORGANIZATION_ROLE ( 'design_owner' ) ;
#10 = CONICAL_SURFACE ( 'NONE', #162, 0.2400000000000039879, 0.7853981633974039811 ) ;
#11 = FACE_OUTER_BOUND ( 'NONE', #101, .T. ) ;
#12 = LOCAL_TIME ( 8, 29, 38.00000000000000000, #233 ) ;
#13 = CYLINDRICAL_SURFACE ( 'NONE', #133, 0.2500000000000000000 ) ;
#14 = CALENDAR_DATE ( 2023, 7, 6 ) ;
#15 = CALENDAR_DATE ( 2023, 7, 6 ) ;
#16 = ORIENTED_EDGE ( 'NONE', *, *, #18, .T. ) ;
#17 = VECTOR ( 'NONE', #238, 39.37007874015748143 ) ;
#18 = EDGE_CURVE ( 'NONE', #64, #20, #100, .T. ) ;
#19 = ORIENTED_EDGE ( 'NONE', *, *, #47, .T. ) ;
#20 = VERTEX_POINT ( 'NONE', #258 ) ;
#21 = LINE ( 'NONE', #125, #127 ) ;
#22 = CARTESIAN_POINT ( 'NONE',  ( -17.98999999999999844, 3.061616997868383018E-17, 0.2500000000000000000 ) ) ;
#23 = PRODUCT_DEFINITION_FORMATION_WITH_SPECIFIED_SOURCE ( 'ANY', '', #28, .NOT_KNOWN. ) ;
#24 = CARTESIAN_POINT ( 'NONE',  ( -17.98999999999999844, 0.000000000000000000, 0.2500000000000000000 ) ) ;
#25 = DIRECTION ( 'NONE',  ( 1.000000000000000000, -0.000000000000000000, -0.000000000000000000 ) ) ;
#26 = LINE ( 'NONE', #104, #267 ) ;
#27 = EDGE_CURVE ( 'NONE', #20, #160, #105, .T. ) ;
#28 = PRODUCT ( 'NIL08-036.000-SL', 'NIL08-036.000-SL', '', ( #242 ) ) ;
#29 = DIRECTION ( 'NONE',  ( 1.000000000000000000, 0.000000000000000000, 0.000000000000000000 ) ) ;
#30 = CC_DESIGN_PERSON_AND_ORGANIZATION_ASSIGNMENT ( #190, #114, ( #23 ) ) ;
#31 = DIRECTION ( 'NONE',  ( 1.000000000000000000, 0.000000000000000000, 0.000000000000000000 ) ) ;
#32 = EDGE_CURVE ( 'NONE', #37, #160, #70, .T. ) ;
#33 = DIRECTION ( 'NONE',  ( -1.000000000000000000, -0.000000000000000000, -0.000000000000000000 ) ) ;
#34 = PERSON_AND_ORGANIZATION ( #154, #199 ) ;
#35 = ORIENTED_EDGE ( 'NONE', *, *, #184, .F. ) ;
#36 = CALENDAR_DATE ( 2023, 7, 6 ) ;
#37 = VERTEX_POINT ( 'NONE', #46 ) ;
#38 = LOCAL_TIME ( 8, 29, 38.00000000000000000, #272 ) ;
#39 = CALENDAR_DATE ( 2023, 7, 6 ) ;
#40 = APPROVAL_DATE_TIME ( #205, #192 ) ;
#41 = ORIENTED_EDGE ( 'NONE', *, *, #27, .F. ) ;
#42 = ORIENTED_EDGE ( 'NONE', *, *, #32, .T. ) ;
#43 = CC_DESIGN_APPROVAL ( #192, ( #8 ) ) ;
#44 = DESIGN_CONTEXT ( 'detailed design', #228, 'design' ) ;
#45 = CYLINDRICAL_SURFACE ( 'NONE', #60, 0.2500000000000000000 ) ;
#46 = CARTESIAN_POINT ( 'NONE',  ( 17.99000000000000199, 0.000000000000000000, 0.2500000000000000000 ) ) ;
#47 = EDGE_CURVE ( 'NONE', #160, #137, #174, .T. ) ;
#48 = DIRECTION ( 'NONE',  ( -1.000000000000000000, -0.000000000000000000, -0.000000000000000000 ) ) ;
#49 = AXIS2_PLACEMENT_3D ( 'NONE', #113, #29, #71 ) ;
#50 = CARTESIAN_POINT ( 'NONE',  ( 18.00000000000000000, 3.061616997868383018E-17, -0.2500000000000000000 ) ) ;
#51 = EDGE_LOOP ( 'NONE', ( #81, #77, #124, #117 ) ) ;
#52 = DIRECTION ( 'NONE',  ( 0.000000000000000000, 0.000000000000000000, -1.000000000000000000 ) ) ;
#53 = CARTESIAN_POINT ( 'NONE',  ( -17.98999999999999844, 0.000000000000000000, 0.000000000000000000 ) ) ;
#54 = PERSON_AND_ORGANIZATION ( #154, #199 ) ;
#55 = CLOSED_SHELL ( 'NONE', ( #62, #194, #236, #170, #67, #180, #245, #257 ) ) ;
#56 = CALENDAR_DATE ( 2023, 7, 6 ) ;
#57 = CC_DESIGN_PERSON_AND_ORGANIZATION_ASSIGNMENT ( #201, #9, ( #28 ) ) ;
#58 = EDGE_LOOP ( 'NONE', ( #119, #79 ) ) ;
#59 = APPROVAL_DATE_TIME ( #121, #214 ) ;
#60 = AXIS2_PLACEMENT_3D ( 'NONE', #168, #196, #261 ) ;
#61 = CC_DESIGN_APPROVAL ( #214, ( #23 ) ) ;
#62 = ADVANCED_FACE ( 'NONE', ( #82 ), #96, .T. ) ;
#63 = PERSON_AND_ORGANIZATION ( #154, #199 ) ;
#64 = VERTEX_POINT ( 'NONE', #263 ) ;
#65 = PLANE ( 'NONE',  #78 ) ;
#66 = CARTESIAN_POINT ( 'NONE',  ( -18.00000000000000000, 0.000000000000000000, 0.000000000000000000 ) ) ;
#67 = ADVANCED_FACE ( 'NONE', ( #85 ), #65, .T. ) ;
#68 = CARTESIAN_POINT ( 'NONE',  ( 18.00000000000000000, 0.000000000000000000, 0.000000000000000000 ) ) ;
#69 = DIRECTION ( 'NONE',  ( 0.000000000000000000, 0.000000000000000000, -1.000000000000000000 ) ) ;
#70 = LINE ( 'NONE', #241, #223 ) ;
#71 = DIRECTION ( 'NONE',  ( 0.000000000000000000, 0.000000000000000000, -1.000000000000000000 ) ) ;
#72 = PRODUCT_DEFINITION_SHAPE ( 'NONE', 'NONE',  #8 ) ;
#73 = VECTOR ( 'NONE', #129, 39.37007874015748143 ) ;
#74 = DIRECTION ( 'NONE',  ( 0.000000000000000000, 0.000000000000000000, -1.000000000000000000 ) ) ;
#75 = COORDINATED_UNIVERSAL_TIME_OFFSET ( 5, 0, .BEHIND. ) ;
#76 = CC_DESIGN_SECURITY_CLASSIFICATION ( #227, ( #23 ) ) ;
#77 = ORIENTED_EDGE ( 'NONE', *, *, #204, .F. ) ;
#78 = AXIS2_PLACEMENT_3D ( 'NONE', #68, #130, #222 ) ;
#79 = ORIENTED_EDGE ( 'NONE', *, *, #138, .T. ) ;
#80 = APPROVAL_STATUS ( 'not_yet_approved' ) ;
#81 = ORIENTED_EDGE ( 'NONE', *, *, #90, .F. ) ;
#82 = FACE_OUTER_BOUND ( 'NONE', #140, .T. ) ;
#83 = ORIENTED_EDGE ( 'NONE', *, *, #230, .T. ) ;
#84 = APPROVAL ( #80, 'UNSPECIFIED' ) ;
#85 = FACE_OUTER_BOUND ( 'NONE', #58, .T. ) ;
#86 = PLANE ( 'NONE',  #118 ) ;
#87 = DIRECTION ( 'NONE',  ( 1.000000000000000000, -0.000000000000000000, -0.000000000000000000 ) ) ;
#88 = FACE_OUTER_BOUND ( 'NONE', #123, .T. ) ;
#89 =( LENGTH_UNIT ( ) NAMED_UNIT ( * ) SI_UNIT ( $, .METRE. ) );
#90 = EDGE_CURVE ( 'NONE', #256, #252, #26, .T. ) ;
#91 = APPLICATION_PROTOCOL_DEFINITION ( 'international standard', 'config_control_design', 1994, #228 ) ;
#92 = CIRCLE ( 'NONE', #49, 0.2400000000000039879 ) ;
#93 = LOCAL_TIME ( 8, 29, 38.00000000000000000, #75 ) ;
#94 = DIRECTION ( 'NONE',  ( -1.000000000000000000, 0.000000000000000000, 0.000000000000000000 ) ) ;
#95 = DIRECTION ( 'NONE',  ( 0.000000000000000000, 0.000000000000000000, 1.000000000000000000 ) ) ;
#96 = CONICAL_SURFACE ( 'NONE', #259, 0.2500000000000000000, 0.7853981633972946241 ) ;
#97 = ORIENTED_EDGE ( 'NONE', *, *, #217, .T. ) ;
#98 = ORIENTED_EDGE ( 'NONE', *, *, #32, .F. ) ;
#99 = PERSON_AND_ORGANIZATION_ROLE ( 'creator' ) ;
#100 = CIRCLE ( 'NONE', #271, 0.2399999999999996303 ) ;
#101 = EDGE_LOOP ( 'NONE', ( #41, #250, #161, #254 ) ) ;
#102 = CC_DESIGN_APPROVAL ( #84, ( #227 ) ) ;
#103 = EDGE_CURVE ( 'NONE', #187, #37, #21, .T. ) ;
#104 = CARTESIAN_POINT ( 'NONE',  ( 18.00000000000000000, 2.939152317953696656E-17, -0.2400000000000039879 ) ) ;
#105 = LINE ( 'NONE', #22, #5 ) ;
#106 = CIRCLE ( 'NONE', #253, 0.2500000000000000000 ) ;
#107 = DIRECTION ( 'NONE',  ( 1.000000000000000000, 0.000000000000000000, 0.000000000000000000 ) ) ;
#108 = FACE_OUTER_BOUND ( 'NONE', #251, .T. ) ;
#109 = EDGE_CURVE ( 'NONE', #252, #37, #239, .T. ) ;
#110 = CARTESIAN_POINT ( 'NONE',  ( -17.98999999999999844, 0.000000000000000000, 0.000000000000000000 ) ) ;
#111 = CIRCLE ( 'NONE', #276, 0.2399999999999996303 ) ;
#112 = AXIS2_PLACEMENT_3D ( 'NONE', #176, #94, #95 ) ;
#113 = CARTESIAN_POINT ( 'NONE',  ( 18.00000000000000000, 0.000000000000000000, 0.000000000000000000 ) ) ;
#114 = PERSON_AND_ORGANIZATION_ROLE ( 'design_supplier' ) ;
#115 = CC_DESIGN_DATE_AND_TIME_ASSIGNMENT ( #135, #159, ( #8 ) ) ;
#116 = SHAPE_DEFINITION_REPRESENTATION ( #72, #207 ) ;
#117 = ORIENTED_EDGE ( 'NONE', *, *, #109, .F. ) ;
#118 = AXIS2_PLACEMENT_3D ( 'NONE', #218, #171, #69 ) ;
#119 = ORIENTED_EDGE ( 'NONE', *, *, #204, .T. ) ;
#120 = DATE_AND_TIME ( #15, #219 ) ;
#121 = DATE_AND_TIME ( #36, #12 ) ;
#122 = ORIENTED_EDGE ( 'NONE', *, *, #90, .T. ) ;
#123 = EDGE_LOOP ( 'NONE', ( #275, #232, #83, #98 ) ) ;
#124 = ORIENTED_EDGE ( 'NONE', *, *, #103, .T. ) ;
#125 = CARTESIAN_POINT ( 'NONE',  ( 18.00000000000000000, 0.000000000000000000, 0.2400000000000039879 ) ) ;
#126 = DIRECTION ( 'NONE',  ( -0.7071067811865787700, 8.659560562354547056E-17, -0.7071067811865160424 ) ) ;
#127 = VECTOR ( 'NONE', #278, 39.37007874015748854 ) ;
#128 = APPROVAL_PERSON_ORGANIZATION ( #54, #192, #226 ) ;
#129 = DIRECTION ( 'NONE',  ( -1.000000000000000000, -0.000000000000000000, -0.000000000000000000 ) ) ;
#130 = DIRECTION ( 'NONE',  ( 1.000000000000000000, 0.000000000000000000, 0.000000000000000000 ) ) ;
#131 = CARTESIAN_POINT ( 'NONE',  ( 0.000000000000000000, 0.000000000000000000, 0.000000000000000000 ) ) ;
#132 = DIRECTION ( 'NONE',  ( 0.000000000000000000, 0.000000000000000000, 1.000000000000000000 ) ) ;
#133 = AXIS2_PLACEMENT_3D ( 'NONE', #134, #33, #270 ) ;
#134 = CARTESIAN_POINT ( 'NONE',  ( 18.00000000000000000, 0.000000000000000000, 0.000000000000000000 ) ) ;
#135 = DATE_AND_TIME ( #39, #38 ) ;
#136 = APPROVAL_ROLE ( '' ) ;
#137 = VERTEX_POINT ( 'NONE', #169 ) ;
#138 = EDGE_CURVE ( 'NONE', #256, #187, #151, .T. ) ;
#139 = DATE_TIME_ROLE ( 'classification_date' ) ;
#140 = EDGE_LOOP ( 'NONE', ( #237, #215, #212, #185 ) ) ;
#141 = ORIENTED_EDGE ( 'NONE', *, *, #109, .T. ) ;
#142 = AXIS2_PLACEMENT_3D ( 'NONE', #220, #167, #146 ) ;
#143 = DIRECTION ( 'NONE',  ( 0.000000000000000000, 0.000000000000000000, -1.000000000000000000 ) ) ;
#144 = DIRECTION ( 'NONE',  ( 0.7071067811866562636, 8.659560562353602888E-17, 0.7071067811864388819 ) ) ;
#145 = CARTESIAN_POINT ( 'NONE',  ( -17.98999999999999844, 0.000000000000000000, -0.2500000000000000000 ) ) ;
#146 = DIRECTION ( 'NONE',  ( 0.000000000000000000, 0.000000000000000000, -1.000000000000000000 ) ) ;
#147 = AXIS2_PLACEMENT_3D ( 'NONE', #53, #177, #181 ) ;
#148 = CARTESIAN_POINT ( 'NONE',  ( -17.98999999999999844, 0.000000000000000000, 0.000000000000000000 ) ) ;
#149 = DIRECTION ( 'NONE',  ( -1.000000000000000000, 0.000000000000000000, 0.000000000000000000 ) ) ;
#150 = LENGTH_MEASURE_WITH_UNIT ( LENGTH_MEASURE( 0.02539999999999999897 ), #89 );
#151 = CIRCLE ( 'NONE', #178, 0.2400000000000039879 ) ;
#152 = APPROVAL_STATUS ( 'not_yet_approved' ) ;
#153 = EDGE_CURVE ( 'NONE', #64, #137, #235, .T. ) ;
#154 = PERSON ( 'UNSPECIFIED', 'UNSPECIFIED', 'UNSPECIFIED', ('UNSPECIFIED'), ('UNSPECIFIED'), ('UNSPECIFIED') ) ;
#155 = DIRECTION ( 'NONE',  ( 0.000000000000000000, 0.000000000000000000, -1.000000000000000000 ) ) ;
#156 = CONICAL_SURFACE ( 'NONE', #112, 0.2400000000000039879, 0.7853981633974039811 ) ;
#157 = CC_DESIGN_DATE_AND_TIME_ASSIGNMENT ( #209, #139, ( #227 ) ) ;
#158 = CONICAL_SURFACE ( 'NONE', #6, 0.2500000000000000000, 0.7853981633972946241 ) ;
#159 = DATE_TIME_ROLE ( 'creation_date' ) ;
#160 = VERTEX_POINT ( 'NONE', #24 ) ;
#161 = ORIENTED_EDGE ( 'NONE', *, *, #153, .T. ) ;
#162 = AXIS2_PLACEMENT_3D ( 'NONE', #4, #225, #132 ) ;
#163 = AXIS2_PLACEMENT_3D ( 'NONE', #131, #202, #31 ) ;
#164 = PERSON_AND_ORGANIZATION ( #154, #199 ) ;
#165 = PERSON_AND_ORGANIZATION_ROLE ( 'creator' ) ;
#166 = EDGE_LOOP ( 'NONE', ( #16, #97 ) ) ;
#167 = DIRECTION ( 'NONE',  ( -1.000000000000000000, 0.000000000000000000, 0.000000000000000000 ) ) ;
#168 = CARTESIAN_POINT ( 'NONE',  ( 18.00000000000000000, 0.000000000000000000, 0.000000000000000000 ) ) ;
#169 = CARTESIAN_POINT ( 'NONE',  ( -17.98999999999999844, 3.061616997868383018E-17, -0.2500000000000000000 ) ) ;
#170 = ADVANCED_FACE ( 'NONE', ( #1 ), #45, .T. ) ;
#171 = DIRECTION ( 'NONE',  ( 1.000000000000000000, 0.000000000000000000, 0.000000000000000000 ) ) ;
#172 = PRODUCT_RELATED_PRODUCT_CATEGORY ( 'detail', '', ( #28 ) ) ;
#173 = DIRECTION ( 'NONE',  ( 0.000000000000000000, 0.000000000000000000, -1.000000000000000000 ) ) ;
#174 = CIRCLE ( 'NONE', #243, 0.2500000000000000000 ) ;
#175 = CARTESIAN_POINT ( 'NONE',  ( -18.00000000000000000, 0.000000000000000000, 0.000000000000000000 ) ) ;
#176 = CARTESIAN_POINT ( 'NONE',  ( 18.00000000000000000, 0.000000000000000000, 0.000000000000000000 ) ) ;
#177 = DIRECTION ( 'NONE',  ( 1.000000000000000000, -0.000000000000000000, -0.000000000000000000 ) ) ;
#178 = AXIS2_PLACEMENT_3D ( 'NONE', #193, #107, #143 ) ;
#179 =( NAMED_UNIT ( * ) PLANE_ANGLE_UNIT ( ) SI_UNIT ( $, .RADIAN. ) );
#180 = ADVANCED_FACE ( 'NONE', ( #3 ), #86, .F. ) ;
#181 = DIRECTION ( 'NONE',  ( 0.000000000000000000, 0.000000000000000000, -1.000000000000000000 ) ) ;
#182 = CC_DESIGN_PERSON_AND_ORGANIZATION_ASSIGNMENT ( #63, #165, ( #8 ) ) ;
#183 = SECURITY_CLASSIFICATION_LEVEL ( 'unclassified' ) ;
#184 = EDGE_CURVE ( 'NONE', #252, #137, #240, .T. ) ;
#185 = ORIENTED_EDGE ( 'NONE', *, *, #153, .F. ) ;
#186 = APPROVAL_ROLE ( '' ) ;
#187 = VERTEX_POINT ( 'NONE', #221 ) ;
#188 = MANIFOLD_SOLID_BREP ( 'Chamfer1', #55 ) ;
#189 = CIRCLE ( 'NONE', #147, 0.2500000000000000000 ) ;
#190 = PERSON_AND_ORGANIZATION ( #154, #199 ) ;
#191 = ORIENTED_EDGE ( 'NONE', *, *, #103, .F. ) ;
#192 = APPROVAL ( #152, 'UNSPECIFIED' ) ;
#193 = CARTESIAN_POINT ( 'NONE',  ( 18.00000000000000000, 0.000000000000000000, 0.000000000000000000 ) ) ;
#194 = ADVANCED_FACE ( 'NONE', ( #108 ), #10, .T. ) ;
#195 = CC_DESIGN_PERSON_AND_ORGANIZATION_ASSIGNMENT ( #164, #277, ( #227 ) ) ;
#196 = DIRECTION ( 'NONE',  ( -1.000000000000000000, -0.000000000000000000, -0.000000000000000000 ) ) ;
#197 = DIMENSIONAL_EXPONENTS ( 1.000000000000000000, 0.000000000000000000, 0.000000000000000000, 0.000000000000000000, 0.000000000000000000, 0.000000000000000000, 0.000000000000000000 ) ;
#198 = CARTESIAN_POINT ( 'NONE',  ( -17.98999999999999844, 0.000000000000000000, 0.000000000000000000 ) ) ;
#199 = ORGANIZATION ( 'UNSPECIFIED', 'UNSPECIFIED', '' ) ;
#200 = APPLICATION_PROTOCOL_DEFINITION ( 'international standard', 'config_control_design', 1994, #213 ) ;
#201 = PERSON_AND_ORGANIZATION ( #154, #199 ) ;
#202 = DIRECTION ( 'NONE',  ( 0.000000000000000000, 0.000000000000000000, 1.000000000000000000 ) ) ;
#203 = COORDINATED_UNIVERSAL_TIME_OFFSET ( 5, 0, .BEHIND. ) ;
#204 = EDGE_CURVE ( 'NONE', #187, #256, #92, .T. ) ;
#205 = DATE_AND_TIME ( #14, #93 ) ;
#206 = ORIENTED_EDGE ( 'NONE', *, *, #138, .F. ) ;
#207 = ADVANCED_BREP_SHAPE_REPRESENTATION ( 'NIL08-036.000-SL', ( #188, #163 ), #234 ) ;
#208 = ORIENTED_EDGE ( 'NONE', *, *, #264, .F. ) ;
#209 = DATE_AND_TIME ( #56, #248 ) ;
#210 = EDGE_LOOP ( 'NONE', ( #35, #141, #42, #19 ) ) ;
#211 = PERSON_AND_ORGANIZATION ( #154, #199 ) ;
#212 = ORIENTED_EDGE ( 'NONE', *, *, #230, .F. ) ;
#213 = APPLICATION_CONTEXT ( 'configuration controlled 3d designs of mechanical parts and assemblies' ) ;
#214 = APPROVAL ( #249, 'UNSPECIFIED' ) ;
#215 = ORIENTED_EDGE ( 'NONE', *, *, #27, .T. ) ;
#216 = DIRECTION ( 'NONE',  ( -1.000000000000000000, -0.000000000000000000, -0.000000000000000000 ) ) ;
#217 = EDGE_CURVE ( 'NONE', #20, #64, #111, .T. ) ;
#218 = CARTESIAN_POINT ( 'NONE',  ( -18.00000000000000000, 0.000000000000000000, 0.000000000000000000 ) ) ;
#219 = LOCAL_TIME ( 8, 29, 38.00000000000000000, #274 ) ;
#220 = CARTESIAN_POINT ( 'NONE',  ( 17.99000000000000199, 0.000000000000000000, 0.000000000000000000 ) ) ;
#221 = CARTESIAN_POINT ( 'NONE',  ( 18.00000000000000000, 0.000000000000000000, 0.2400000000000039879 ) ) ;
#222 = DIRECTION ( 'NONE',  ( 0.000000000000000000, 0.000000000000000000, -1.000000000000000000 ) ) ;
#223 = VECTOR ( 'NONE', #48, 39.37007874015748143 ) ;
#224 = CARTESIAN_POINT ( 'NONE',  ( 17.99000000000000199, 3.061616997868383018E-17, -0.2500000000000000000 ) ) ;
#225 = DIRECTION ( 'NONE',  ( -1.000000000000000000, 0.000000000000000000, 0.000000000000000000 ) ) ;
#226 = APPROVAL_ROLE ( '' ) ;
#227 = SECURITY_CLASSIFICATION ( '', '', #183 ) ;
#228 = APPLICATION_CONTEXT ( 'configuration controlled 3d designs of mechanical parts and assemblies' ) ;
#229 = CARTESIAN_POINT ( 'NONE',  ( 17.99000000000000199, 0.000000000000000000, 0.000000000000000000 ) ) ;
#230 = EDGE_CURVE ( 'NONE', #137, #160, #189, .T. ) ;
#231 = PERSON_AND_ORGANIZATION ( #154, #199 ) ;
#232 = ORIENTED_EDGE ( 'NONE', *, *, #184, .T. ) ;
#233 = COORDINATED_UNIVERSAL_TIME_OFFSET ( 5, 0, .BEHIND. ) ;
#234 =( GEOMETRIC_REPRESENTATION_CONTEXT ( 3 ) GLOBAL_UNCERTAINTY_ASSIGNED_CONTEXT ( ( #273 ) ) GLOBAL_UNIT_ASSIGNED_CONTEXT ( ( #246, #179, #7 ) ) REPRESENTATION_CONTEXT ( 'NONE', 'WORKASPACE' ) );
#235 = LINE ( 'NONE', #145, #17 ) ;
#236 = ADVANCED_FACE ( 'NONE', ( #88 ), #13, .T. ) ;
#237 = ORIENTED_EDGE ( 'NONE', *, *, #217, .F. ) ;
#238 = DIRECTION ( 'NONE',  ( 0.7071067811866562636, 0.000000000000000000, -0.7071067811864388819 ) ) ;
#239 = CIRCLE ( 'NONE', #142, 0.2500000000000000000 ) ;
#240 = LINE ( 'NONE', #50, #73 ) ;
#241 = CARTESIAN_POINT ( 'NONE',  ( 18.00000000000000000, 0.000000000000000000, 0.2500000000000000000 ) ) ;
#242 = MECHANICAL_CONTEXT ( 'NONE', #213, 'mechanical' ) ;
#243 = AXIS2_PLACEMENT_3D ( 'NONE', #198, #25, #173 ) ;
#244 = APPROVAL_PERSON_ORGANIZATION ( #231, #214, #186 ) ;
#245 = ADVANCED_FACE ( 'NONE', ( #266 ), #156, .T. ) ;
#246 =( CONVERSION_BASED_UNIT ( 'INCH', #150 ) LENGTH_UNIT ( ) NAMED_UNIT ( #197 ) );
#247 = DIRECTION ( 'NONE',  ( 1.000000000000000000, -0.000000000000000000, -0.000000000000000000 ) ) ;
#248 = LOCAL_TIME ( 8, 29, 38.00000000000000000, #203 ) ;
#249 = APPROVAL_STATUS ( 'not_yet_approved' ) ;
#250 = ORIENTED_EDGE ( 'NONE', *, *, #18, .F. ) ;
#251 = EDGE_LOOP ( 'NONE', ( #206, #122, #208, #191 ) ) ;
#252 = VERTEX_POINT ( 'NONE', #224 ) ;
#253 = AXIS2_PLACEMENT_3D ( 'NONE', #229, #149, #52 ) ;
#254 = ORIENTED_EDGE ( 'NONE', *, *, #47, .F. ) ;
#255 = APPROVAL_DATE_TIME ( #120, #84 ) ;
#256 = VERTEX_POINT ( 'NONE', #269 ) ;
#257 = ADVANCED_FACE ( 'NONE', ( #11 ), #158, .T. ) ;
#258 = CARTESIAN_POINT ( 'NONE',  ( -18.00000000000000000, 3.000384657911013028E-17, 0.2399999999999996303 ) ) ;
#259 = AXIS2_PLACEMENT_3D ( 'NONE', #148, #87, #2 ) ;
#260 = CC_DESIGN_PERSON_AND_ORGANIZATION_ASSIGNMENT ( #211, #99, ( #23 ) ) ;
#261 = DIRECTION ( 'NONE',  ( 0.000000000000000000, 0.000000000000000000, 1.000000000000000000 ) ) ;
#262 = DIRECTION ( 'NONE',  ( 0.000000000000000000, 0.000000000000000000, -1.000000000000000000 ) ) ;
#263 = CARTESIAN_POINT ( 'NONE',  ( -18.00000000000000000, 0.000000000000000000, -0.2399999999999996303 ) ) ;
#264 = EDGE_CURVE ( 'NONE', #37, #252, #106, .T. ) ;
#265 = APPROVAL_PERSON_ORGANIZATION ( #34, #84, #136 ) ;
#266 = FACE_OUTER_BOUND ( 'NONE', #51, .T. ) ;
#267 = VECTOR ( 'NONE', #126, 39.37007874015748854 ) ;
#268 = DIRECTION ( 'NONE',  ( -1.000000000000000000, -0.000000000000000000, -0.000000000000000000 ) ) ;
#269 = CARTESIAN_POINT ( 'NONE',  ( 18.00000000000000000, 3.000384657911039529E-17, -0.2400000000000039879 ) ) ;
#270 = DIRECTION ( 'NONE',  ( 0.000000000000000000, 0.000000000000000000, 1.000000000000000000 ) ) ;
#271 = AXIS2_PLACEMENT_3D ( 'NONE', #66, #216, #262 ) ;
#272 = COORDINATED_UNIVERSAL_TIME_OFFSET ( 5, 0, .BEHIND. ) ;
#273 = UNCERTAINTY_MEASURE_WITH_UNIT (LENGTH_MEASURE( 1.000000000000000082E-05 ), #246, 'distance_accuracy_value', 'NONE');
#274 = COORDINATED_UNIVERSAL_TIME_OFFSET ( 5, 0, .BEHIND. ) ;
#275 = ORIENTED_EDGE ( 'NONE', *, *, #264, .T. ) ;
#276 = AXIS2_PLACEMENT_3D ( 'NONE', #175, #268, #155 ) ;
#277 = PERSON_AND_ORGANIZATION_ROLE ( 'classification_officer' ) ;
#278 = DIRECTION ( 'NONE',  ( -0.7071067811865787700, 0.000000000000000000, 0.7071067811865160424 ) ) ;
ENDSEC;
END-ISO-10303-21;
