ISO-10303-21;
HEADER;
FILE_DESCRIPTION (( 'STEP AP203' ),
    '1' );
FILE_NAME ('NIL08-024.000-SL.step',
    '2023-06-07T12:29:33',
    ( '' ),
    ( '' ),
    'SwSTEP 2.0',
    'SolidWorks 2021',
    '' );
FILE_SCHEMA (( 'CONFIG_CONTROL_DESIGN' ));
ENDSEC;

DATA;
#1 = PERSON_AND_ORGANIZATION ( #111, #187 ) ;
#2 = DESIGN_CONTEXT ( 'detailed design', #68, 'design' ) ;
#3 = AXIS2_PLACEMENT_3D ( 'NONE', #78, #141, #101 ) ;
#4 = COORDINATED_UNIVERSAL_TIME_OFFSET ( 5, 0, .BEHIND. ) ;
#5 = ADVANCED_BREP_SHAPE_REPRESENTATION ( 'NIL08-024.000-SL', ( #193, #136 ), #271 ) ;
#6 = VERTEX_POINT ( 'NONE', #201 ) ;
#7 = AXIS2_PLACEMENT_3D ( 'NONE', #230, #210, #144 ) ;
#8 = EDGE_LOOP ( 'NONE', ( #175, #118 ) ) ;
#9 = COORDINATED_UNIVERSAL_TIME_OFFSET ( 5, 0, .BEHIND. ) ;
#10 = ORIENTED_EDGE ( 'NONE', *, *, #155, .F. ) ;
#11 = ORIENTED_EDGE ( 'NONE', *, *, #12, .F. ) ;
#12 = EDGE_CURVE ( 'NONE', #267, #32, #236, .T. ) ;
#13 = CC_DESIGN_APPROVAL ( #121, ( #95 ) ) ;
#14 = ORIENTED_EDGE ( 'NONE', *, *, #238, .T. ) ;
#15 = CARTESIAN_POINT ( 'NONE',  ( 12.00000000000000178, 3.061616997868382402E-17, -0.2500000000000000000 ) ) ;
#16 = CARTESIAN_POINT ( 'NONE',  ( 12.00000000000000178, 2.939152317953829776E-17, -0.2400000000000148959 ) ) ;
#17 = VECTOR ( 'NONE', #268, 39.37007874015748143 ) ;
#18 = DIRECTION ( 'NONE',  ( 0.7071067811865777708, 0.000000000000000000, -0.7071067811865173747 ) ) ;
#19 = CARTESIAN_POINT ( 'NONE',  ( -11.98999999999997179, 0.000000000000000000, -0.2500000000000000000 ) ) ;
#20 = APPROVAL_ROLE ( '' ) ;
#21 = PRODUCT_DEFINITION_FORMATION_WITH_SPECIFIED_SOURCE ( 'ANY', '', #93, .NOT_KNOWN. ) ;
#22 = DIRECTION ( 'NONE',  ( 0.000000000000000000, 0.000000000000000000, 1.000000000000000000 ) ) ;
#23 = CALENDAR_DATE ( 2023, 7, 6 ) ;
#24 =( NAMED_UNIT ( * ) PLANE_ANGLE_UNIT ( ) SI_UNIT ( $, .RADIAN. ) );
#25 = UNCERTAINTY_MEASURE_WITH_UNIT (LENGTH_MEASURE( 1.000000000000000082E-05 ), #255, 'distance_accuracy_value', 'NONE');
#26 = LOCAL_TIME ( 8, 29, 33.00000000000000000, #153 ) ;
#27 = ORIENTED_EDGE ( 'NONE', *, *, #51, .T. ) ;
#28 = ORIENTED_EDGE ( 'NONE', *, *, #155, .T. ) ;
#29 = FACE_OUTER_BOUND ( 'NONE', #160, .T. ) ;
#30 = CIRCLE ( 'NONE', #7, 0.2500000000000000000 ) ;
#31 = ORIENTED_EDGE ( 'NONE', *, *, #171, .F. ) ;
#32 = VERTEX_POINT ( 'NONE', #69 ) ;
#33 = PERSON_AND_ORGANIZATION ( #111, #187 ) ;
#34 = EDGE_LOOP ( 'NONE', ( #115, #10, #55, #11 ) ) ;
#35 = FACE_OUTER_BOUND ( 'NONE', #229, .T. ) ;
#36 = DIRECTION ( 'NONE',  ( 0.000000000000000000, 0.000000000000000000, -1.000000000000000000 ) ) ;
#37 = SHAPE_DEFINITION_REPRESENTATION ( #147, #5 ) ;
#38 = CC_DESIGN_PERSON_AND_ORGANIZATION_ASSIGNMENT ( #211, #179, ( #21 ) ) ;
#39 = DIRECTION ( 'NONE',  ( 0.000000000000000000, 0.000000000000000000, -1.000000000000000000 ) ) ;
#40 = DIRECTION ( 'NONE',  ( -1.000000000000000000, -0.000000000000000000, -0.000000000000000000 ) ) ;
#41 = AXIS2_PLACEMENT_3D ( 'NONE', #186, #239, #272 ) ;
#42 = DIRECTION ( 'NONE',  ( -1.000000000000000000, 0.000000000000000000, 0.000000000000000000 ) ) ;
#43 = DIRECTION ( 'NONE',  ( 0.000000000000000000, 0.000000000000000000, -1.000000000000000000 ) ) ;
#44 = CC_DESIGN_PERSON_AND_ORGANIZATION_ASSIGNMENT ( #228, #73, ( #95 ) ) ;
#45 = LOCAL_TIME ( 8, 29, 33.00000000000000000, #225 ) ;
#46 = ADVANCED_FACE ( 'NONE', ( #91 ), #158, .T. ) ;
#47 = PERSON_AND_ORGANIZATION ( #111, #187 ) ;
#48 = CC_DESIGN_PERSON_AND_ORGANIZATION_ASSIGNMENT ( #257, #199, ( #126 ) ) ;
#49 = DIRECTION ( 'NONE',  ( -1.000000000000000000, -0.000000000000000000, -0.000000000000000000 ) ) ;
#50 = ORIENTED_EDGE ( 'NONE', *, *, #145, .T. ) ;
#51 = EDGE_CURVE ( 'NONE', #202, #249, #263, .T. ) ;
#52 = CIRCLE ( 'NONE', #53, 0.2399999999999711808 ) ;
#53 = AXIS2_PLACEMENT_3D ( 'NONE', #57, #40, #102 ) ;
#54 = CARTESIAN_POINT ( 'NONE',  ( 12.00000000000000178, 0.000000000000000000, 0.000000000000000000 ) ) ;
#55 = ORIENTED_EDGE ( 'NONE', *, *, #109, .T. ) ;
#56 = DIRECTION ( 'NONE',  ( 0.000000000000000000, 0.000000000000000000, -1.000000000000000000 ) ) ;
#57 = CARTESIAN_POINT ( 'NONE',  ( -12.00000000000000178, 0.000000000000000000, 0.000000000000000000 ) ) ;
#58 = DIRECTION ( 'NONE',  ( 1.000000000000000000, 0.000000000000000000, 0.000000000000000000 ) ) ;
#59 = ADVANCED_FACE ( 'NONE', ( #214 ), #151, .T. ) ;
#60 = AXIS2_PLACEMENT_3D ( 'NONE', #173, #49, #43 ) ;
#61 = CALENDAR_DATE ( 2023, 7, 6 ) ;
#62 = MECHANICAL_CONTEXT ( 'NONE', #209, 'mechanical' ) ;
#63 = CONICAL_SURFACE ( 'NONE', #41, 0.2500000000000000000, 0.7853981633974056464 ) ;
#64 = CARTESIAN_POINT ( 'NONE',  ( 12.00000000000000178, 0.000000000000000000, 0.000000000000000000 ) ) ;
#65 = DIMENSIONAL_EXPONENTS ( 1.000000000000000000, 0.000000000000000000, 0.000000000000000000, 0.000000000000000000, 0.000000000000000000, 0.000000000000000000, 0.000000000000000000 ) ;
#66 = CONICAL_SURFACE ( 'NONE', #182, 0.2400000000000148959, 0.7853981633974056464 ) ;
#67 = DIRECTION ( 'NONE',  ( -1.000000000000000000, 0.000000000000000000, 0.000000000000000000 ) ) ;
#68 = APPLICATION_CONTEXT ( 'configuration controlled 3d designs of mechanical parts and assemblies' ) ;
#69 = CARTESIAN_POINT ( 'NONE',  ( 11.99000000000001442, 0.000000000000000000, 0.2500000000000000000 ) ) ;
#70 = CALENDAR_DATE ( 2023, 7, 6 ) ;
#71 = ORIENTED_EDGE ( 'NONE', *, *, #104, .F. ) ;
#72 = APPROVAL_PERSON_ORGANIZATION ( #47, #226, #20 ) ;
#73 = PERSON_AND_ORGANIZATION_ROLE ( 'classification_officer' ) ;
#74 = ORIENTED_EDGE ( 'NONE', *, *, #206, .T. ) ;
#75 = PRODUCT_RELATED_PRODUCT_CATEGORY ( 'detail', '', ( #93 ) ) ;
#76 = FACE_OUTER_BOUND ( 'NONE', #88, .T. ) ;
#77 = VECTOR ( 'NONE', #194, 39.37007874015748143 ) ;
#78 = CARTESIAN_POINT ( 'NONE',  ( -12.00000000000000178, 0.000000000000000000, 0.000000000000000000 ) ) ;
#79 = LINE ( 'NONE', #252, #258 ) ;
#80 = LINE ( 'NONE', #251, #17 ) ;
#81 = DIRECTION ( 'NONE',  ( 1.000000000000000000, -0.000000000000000000, -0.000000000000000000 ) ) ;
#82 = CONICAL_SURFACE ( 'NONE', #232, 0.2400000000000148959, 0.7853981633974056464 ) ;
#83 = APPLICATION_PROTOCOL_DEFINITION ( 'international standard', 'config_control_design', 1994, #68 ) ;
#84 = CC_DESIGN_DATE_AND_TIME_ASSIGNMENT ( #183, #269, ( #95 ) ) ;
#85 = APPROVAL_ROLE ( '' ) ;
#86 = AXIS2_PLACEMENT_3D ( 'NONE', #213, #58, #122 ) ;
#87 = PERSON_AND_ORGANIZATION ( #111, #187 ) ;
#88 = EDGE_LOOP ( 'NONE', ( #184, #261, #157, #248 ) ) ;
#89 = AXIS2_PLACEMENT_3D ( 'NONE', #235, #81, #207 ) ;
#90 = ADVANCED_FACE ( 'NONE', ( #274 ), #66, .T. ) ;
#91 = FACE_OUTER_BOUND ( 'NONE', #135, .T. ) ;
#92 = APPROVAL_STATUS ( 'not_yet_approved' ) ;
#93 = PRODUCT ( 'NIL08-024.000-SL', 'NIL08-024.000-SL', '', ( #62 ) ) ;
#94 = DATE_AND_TIME ( #61, #26 ) ;
#95 = SECURITY_CLASSIFICATION ( '', '', #96 ) ;
#96 = SECURITY_CLASSIFICATION_LEVEL ( 'unclassified' ) ;
#97 = LINE ( 'NONE', #19, #149 ) ;
#98 = COORDINATED_UNIVERSAL_TIME_OFFSET ( 5, 0, .BEHIND. ) ;
#99 = CARTESIAN_POINT ( 'NONE',  ( 12.00000000000000178, 3.000384657911106705E-17, -0.2400000000000148959 ) ) ;
#100 = VECTOR ( 'NONE', #128, 39.37007874015748143 ) ;
#101 = DIRECTION ( 'NONE',  ( 0.000000000000000000, 0.000000000000000000, -1.000000000000000000 ) ) ;
#102 = DIRECTION ( 'NONE',  ( 0.000000000000000000, 0.000000000000000000, -1.000000000000000000 ) ) ;
#103 = CARTESIAN_POINT ( 'NONE',  ( -11.98999999999997179, 0.000000000000000000, 0.000000000000000000 ) ) ;
#104 = EDGE_CURVE ( 'NONE', #6, #221, #97, .T. ) ;
#105 = DATE_AND_TIME ( #114, #176 ) ;
#106 = CIRCLE ( 'NONE', #86, 0.2400000000000148959 ) ;
#107 = APPROVAL_DATE_TIME ( #105, #226 ) ;
#108 = CARTESIAN_POINT ( 'NONE',  ( 11.99000000000001442, 3.061616997868382402E-17, -0.2500000000000000000 ) ) ;
#109 = EDGE_CURVE ( 'NONE', #249, #32, #80, .T. ) ;
#110 = APPROVAL_PERSON_ORGANIZATION ( #1, #154, #85 ) ;
#111 = PERSON ( 'UNSPECIFIED', 'UNSPECIFIED', 'UNSPECIFIED', ('UNSPECIFIED'), ('UNSPECIFIED'), ('UNSPECIFIED') ) ;
#112 = ORIENTED_EDGE ( 'NONE', *, *, #174, .F. ) ;
#113 = ORIENTED_EDGE ( 'NONE', *, *, #12, .T. ) ;
#114 = CALENDAR_DATE ( 2023, 7, 6 ) ;
#115 = ORIENTED_EDGE ( 'NONE', *, *, #159, .F. ) ;
#116 = DIRECTION ( 'NONE',  ( 1.000000000000000000, 0.000000000000000000, 0.000000000000000000 ) ) ;
#117 = APPROVAL_ROLE ( '' ) ;
#118 = ORIENTED_EDGE ( 'NONE', *, *, #174, .T. ) ;
#119 = APPROVAL_PERSON_ORGANIZATION ( #33, #121, #117 ) ;
#120 = DIRECTION ( 'NONE',  ( 0.000000000000000000, 0.000000000000000000, 1.000000000000000000 ) ) ;
#121 = APPROVAL ( #208, 'UNSPECIFIED' ) ;
#122 = DIRECTION ( 'NONE',  ( 0.000000000000000000, 0.000000000000000000, -1.000000000000000000 ) ) ;
#123 = FACE_OUTER_BOUND ( 'NONE', #138, .T. ) ;
#124 = AXIS2_PLACEMENT_3D ( 'NONE', #259, #67, #198 ) ;
#125 = VECTOR ( 'NONE', #254, 39.37007874015748143 ) ;
#126 = PRODUCT_DEFINITION ( 'UNKNOWN', '', #21, #2 ) ;
#127 = DIRECTION ( 'NONE',  ( -1.000000000000000000, 0.000000000000000000, 0.000000000000000000 ) ) ;
#128 = DIRECTION ( 'NONE',  ( -1.000000000000000000, -0.000000000000000000, -0.000000000000000000 ) ) ;
#129 =( LENGTH_UNIT ( ) NAMED_UNIT ( * ) SI_UNIT ( $, .METRE. ) );
#130 = CIRCLE ( 'NONE', #224, 0.2500000000000000000 ) ;
#131 = CC_DESIGN_DATE_AND_TIME_ASSIGNMENT ( #192, #195, ( #126 ) ) ;
#132 = LOCAL_TIME ( 8, 29, 33.00000000000000000, #98 ) ;
#133 = VERTEX_POINT ( 'NONE', #212 ) ;
#134 = CARTESIAN_POINT ( 'NONE',  ( 0.000000000000000000, 0.000000000000000000, 0.000000000000000000 ) ) ;
#135 = EDGE_LOOP ( 'NONE', ( #247, #113, #161, #50 ) ) ;
#136 = AXIS2_PLACEMENT_3D ( 'NONE', #134, #22, #241 ) ;
#137 = PERSON_AND_ORGANIZATION_ROLE ( 'design_supplier' ) ;
#138 = EDGE_LOOP ( 'NONE', ( #204, #220, #265, #244 ) ) ;
#139 = CALENDAR_DATE ( 2023, 7, 6 ) ;
#140 = EDGE_LOOP ( 'NONE', ( #112, #14, #31, #71 ) ) ;
#141 = DIRECTION ( 'NONE',  ( 1.000000000000000000, 0.000000000000000000, 0.000000000000000000 ) ) ;
#142 = CC_DESIGN_PERSON_AND_ORGANIZATION_ASSIGNMENT ( #266, #137, ( #21 ) ) ;
#143 = CIRCLE ( 'NONE', #60, 0.2399999999999711808 ) ;
#144 = DIRECTION ( 'NONE',  ( 0.000000000000000000, 0.000000000000000000, -1.000000000000000000 ) ) ;
#145 = EDGE_CURVE ( 'NONE', #133, #221, #130, .T. ) ;
#146 = CARTESIAN_POINT ( 'NONE',  ( 12.00000000000000178, 0.000000000000000000, 0.000000000000000000 ) ) ;
#147 = PRODUCT_DEFINITION_SHAPE ( 'NONE', 'NONE',  #126 ) ;
#148 = DIRECTION ( 'NONE',  ( 0.7071067811865777708, 8.659560562354564312E-17, 0.7071067811865173747 ) ) ;
#149 = VECTOR ( 'NONE', #18, 39.37007874015748143 ) ;
#150 = PLANE ( 'NONE',  #3 ) ;
#151 = CONICAL_SURFACE ( 'NONE', #89, 0.2500000000000000000, 0.7853981633974056464 ) ;
#152 = ADVANCED_FACE ( 'NONE', ( #76 ), #82, .T. ) ;
#153 = COORDINATED_UNIVERSAL_TIME_OFFSET ( 5, 0, .BEHIND. ) ;
#154 = APPROVAL ( #92, 'UNSPECIFIED' ) ;
#155 = EDGE_CURVE ( 'NONE', #249, #202, #106, .T. ) ;
#156 = ORIENTED_EDGE ( 'NONE', *, *, #200, .T. ) ;
#157 = ORIENTED_EDGE ( 'NONE', *, *, #200, .F. ) ;
#158 = CYLINDRICAL_SURFACE ( 'NONE', #181, 0.2500000000000000000 ) ;
#159 = EDGE_CURVE ( 'NONE', #202, #267, #165, .T. ) ;
#160 = EDGE_LOOP ( 'NONE', ( #156, #74, #223, #197 ) ) ;
#161 = ORIENTED_EDGE ( 'NONE', *, *, #242, .T. ) ;
#162 = DIRECTION ( 'NONE',  ( 0.000000000000000000, 0.000000000000000000, 1.000000000000000000 ) ) ;
#163 = APPROVAL_DATE_TIME ( #94, #154 ) ;
#164 = CC_DESIGN_APPROVAL ( #154, ( #21 ) ) ;
#165 = LINE ( 'NONE', #16, #125 ) ;
#166 = FACE_OUTER_BOUND ( 'NONE', #8, .T. ) ;
#167 = ADVANCED_FACE ( 'NONE', ( #166 ), #150, .F. ) ;
#168 = CIRCLE ( 'NONE', #243, 0.2500000000000000000 ) ;
#169 = DIRECTION ( 'NONE',  ( 1.000000000000000000, -0.000000000000000000, -0.000000000000000000 ) ) ;
#170 = LINE ( 'NONE', #215, #77 ) ;
#171 = EDGE_CURVE ( 'NONE', #221, #133, #30, .T. ) ;
#172 = CC_DESIGN_PERSON_AND_ORGANIZATION_ASSIGNMENT ( #87, #222, ( #93 ) ) ;
#173 = CARTESIAN_POINT ( 'NONE',  ( -12.00000000000000178, 0.000000000000000000, 0.000000000000000000 ) ) ;
#174 = EDGE_CURVE ( 'NONE', #180, #6, #52, .T. ) ;
#175 = ORIENTED_EDGE ( 'NONE', *, *, #275, .T. ) ;
#176 = LOCAL_TIME ( 8, 29, 33.00000000000000000, #9 ) ;
#177 = DIRECTION ( 'NONE',  ( -1.000000000000000000, -0.000000000000000000, -0.000000000000000000 ) ) ;
#178 =( NAMED_UNIT ( * ) SI_UNIT ( $, .STERADIAN. ) SOLID_ANGLE_UNIT ( ) );
#179 = PERSON_AND_ORGANIZATION_ROLE ( 'creator' ) ;
#180 = VERTEX_POINT ( 'NONE', #185 ) ;
#181 = AXIS2_PLACEMENT_3D ( 'NONE', #54, #177, #260 ) ;
#182 = AXIS2_PLACEMENT_3D ( 'NONE', #253, #127, #120 ) ;
#183 = DATE_AND_TIME ( #139, #45 ) ;
#184 = ORIENTED_EDGE ( 'NONE', *, *, #51, .F. ) ;
#185 = CARTESIAN_POINT ( 'NONE',  ( -12.00000000000000178, 3.000384657910838616E-17, 0.2399999999999711808 ) ) ;
#186 = CARTESIAN_POINT ( 'NONE',  ( -11.98999999999997179, 0.000000000000000000, 0.000000000000000000 ) ) ;
#187 = ORGANIZATION ( 'UNSPECIFIED', 'UNSPECIFIED', '' ) ;
#188 = CARTESIAN_POINT ( 'NONE',  ( -11.98999999999997179, 3.061616997868382402E-17, -0.2500000000000000000 ) ) ;
#189 = CARTESIAN_POINT ( 'NONE',  ( 11.99000000000001442, 0.000000000000000000, 0.000000000000000000 ) ) ;
#190 = ADVANCED_FACE ( 'NONE', ( #35 ), #250, .T. ) ;
#191 = CARTESIAN_POINT ( 'NONE',  ( 12.00000000000000178, 0.000000000000000000, 0.000000000000000000 ) ) ;
#192 = DATE_AND_TIME ( #23, #264 ) ;
#193 = MANIFOLD_SOLID_BREP ( 'Chamfer1', #246 ) ;
#194 = DIRECTION ( 'NONE',  ( -1.000000000000000000, -0.000000000000000000, -0.000000000000000000 ) ) ;
#195 = DATE_TIME_ROLE ( 'creation_date' ) ;
#196 = DIRECTION ( 'NONE',  ( -1.000000000000000000, -0.000000000000000000, -0.000000000000000000 ) ) ;
#197 = ORIENTED_EDGE ( 'NONE', *, *, #242, .F. ) ;
#198 = DIRECTION ( 'NONE',  ( 0.000000000000000000, 0.000000000000000000, -1.000000000000000000 ) ) ;
#199 = PERSON_AND_ORGANIZATION_ROLE ( 'creator' ) ;
#200 = EDGE_CURVE ( 'NONE', #32, #267, #168, .T. ) ;
#201 = CARTESIAN_POINT ( 'NONE',  ( -12.00000000000000178, 0.000000000000000000, -0.2399999999999711808 ) ) ;
#202 = VERTEX_POINT ( 'NONE', #99 ) ;
#203 = DATE_AND_TIME ( #70, #132 ) ;
#204 = ORIENTED_EDGE ( 'NONE', *, *, #238, .F. ) ;
#205 = CC_DESIGN_SECURITY_CLASSIFICATION ( #95, ( #21 ) ) ;
#206 = EDGE_CURVE ( 'NONE', #267, #221, #273, .T. ) ;
#207 = DIRECTION ( 'NONE',  ( 0.000000000000000000, 0.000000000000000000, -1.000000000000000000 ) ) ;
#208 = APPROVAL_STATUS ( 'not_yet_approved' ) ;
#209 = APPLICATION_CONTEXT ( 'configuration controlled 3d designs of mechanical parts and assemblies' ) ;
#210 = DIRECTION ( 'NONE',  ( 1.000000000000000000, -0.000000000000000000, -0.000000000000000000 ) ) ;
#211 = PERSON_AND_ORGANIZATION ( #111, #187 ) ;
#212 = CARTESIAN_POINT ( 'NONE',  ( -11.98999999999997179, 0.000000000000000000, 0.2500000000000000000 ) ) ;
#213 = CARTESIAN_POINT ( 'NONE',  ( 12.00000000000000178, 0.000000000000000000, 0.000000000000000000 ) ) ;
#214 = FACE_OUTER_BOUND ( 'NONE', #140, .T. ) ;
#215 = CARTESIAN_POINT ( 'NONE',  ( 12.00000000000000178, 0.000000000000000000, 0.2500000000000000000 ) ) ;
#216 = APPLICATION_PROTOCOL_DEFINITION ( 'international standard', 'config_control_design', 1994, #209 ) ;
#217 = APPROVAL_STATUS ( 'not_yet_approved' ) ;
#218 = CYLINDRICAL_SURFACE ( 'NONE', #256, 0.2500000000000000000 ) ;
#219 = AXIS2_PLACEMENT_3D ( 'NONE', #227, #116, #270 ) ;
#220 = ORIENTED_EDGE ( 'NONE', *, *, #275, .F. ) ;
#221 = VERTEX_POINT ( 'NONE', #188 ) ;
#222 = PERSON_AND_ORGANIZATION_ROLE ( 'design_owner' ) ;
#223 = ORIENTED_EDGE ( 'NONE', *, *, #171, .T. ) ;
#224 = AXIS2_PLACEMENT_3D ( 'NONE', #103, #169, #56 ) ;
#225 = COORDINATED_UNIVERSAL_TIME_OFFSET ( 5, 0, .BEHIND. ) ;
#226 = APPROVAL ( #217, 'UNSPECIFIED' ) ;
#227 = CARTESIAN_POINT ( 'NONE',  ( 12.00000000000000178, 0.000000000000000000, 0.000000000000000000 ) ) ;
#228 = PERSON_AND_ORGANIZATION ( #111, #187 ) ;
#229 = EDGE_LOOP ( 'NONE', ( #28, #27 ) ) ;
#230 = CARTESIAN_POINT ( 'NONE',  ( -11.98999999999997179, 0.000000000000000000, 0.000000000000000000 ) ) ;
#231 = ADVANCED_FACE ( 'NONE', ( #123 ), #63, .T. ) ;
#232 = AXIS2_PLACEMENT_3D ( 'NONE', #191, #42, #162 ) ;
#233 = DIRECTION ( 'NONE',  ( -1.000000000000000000, 0.000000000000000000, 0.000000000000000000 ) ) ;
#234 = DIRECTION ( 'NONE',  ( 1.000000000000000000, 0.000000000000000000, 0.000000000000000000 ) ) ;
#235 = CARTESIAN_POINT ( 'NONE',  ( -11.98999999999997179, 0.000000000000000000, 0.000000000000000000 ) ) ;
#236 = CIRCLE ( 'NONE', #124, 0.2500000000000000000 ) ;
#237 = CC_DESIGN_APPROVAL ( #226, ( #126 ) ) ;
#238 = EDGE_CURVE ( 'NONE', #180, #133, #79, .T. ) ;
#239 = DIRECTION ( 'NONE',  ( 1.000000000000000000, -0.000000000000000000, -0.000000000000000000 ) ) ;
#240 = AXIS2_PLACEMENT_3D ( 'NONE', #146, #234, #39 ) ;
#241 = DIRECTION ( 'NONE',  ( 1.000000000000000000, 0.000000000000000000, 0.000000000000000000 ) ) ;
#242 = EDGE_CURVE ( 'NONE', #32, #133, #170, .T. ) ;
#243 = AXIS2_PLACEMENT_3D ( 'NONE', #189, #233, #36 ) ;
#244 = ORIENTED_EDGE ( 'NONE', *, *, #145, .F. ) ;
#245 = DIRECTION ( 'NONE',  ( 0.000000000000000000, 0.000000000000000000, 1.000000000000000000 ) ) ;
#246 = CLOSED_SHELL ( 'NONE', ( #59, #152, #277, #46, #190, #167, #90, #231 ) ) ;
#247 = ORIENTED_EDGE ( 'NONE', *, *, #206, .F. ) ;
#248 = ORIENTED_EDGE ( 'NONE', *, *, #109, .F. ) ;
#249 = VERTEX_POINT ( 'NONE', #278 ) ;
#250 = PLANE ( 'NONE',  #240 ) ;
#251 = CARTESIAN_POINT ( 'NONE',  ( 12.00000000000000178, 0.000000000000000000, 0.2400000000000148959 ) ) ;
#252 = CARTESIAN_POINT ( 'NONE',  ( -11.98999999999997179, 3.061616997868383018E-17, 0.2500000000000000000 ) ) ;
#253 = CARTESIAN_POINT ( 'NONE',  ( 12.00000000000000178, 0.000000000000000000, 0.000000000000000000 ) ) ;
#254 = DIRECTION ( 'NONE',  ( -0.7071067811865777708, 8.659560562354564312E-17, -0.7071067811865173747 ) ) ;
#255 =( CONVERSION_BASED_UNIT ( 'INCH', #276 ) LENGTH_UNIT ( ) NAMED_UNIT ( #65 ) );
#256 = AXIS2_PLACEMENT_3D ( 'NONE', #64, #196, #245 ) ;
#257 = PERSON_AND_ORGANIZATION ( #111, #187 ) ;
#258 = VECTOR ( 'NONE', #148, 39.37007874015748143 ) ;
#259 = CARTESIAN_POINT ( 'NONE',  ( 11.99000000000001442, 0.000000000000000000, 0.000000000000000000 ) ) ;
#260 = DIRECTION ( 'NONE',  ( 0.000000000000000000, 0.000000000000000000, 1.000000000000000000 ) ) ;
#261 = ORIENTED_EDGE ( 'NONE', *, *, #159, .T. ) ;
#262 = APPROVAL_DATE_TIME ( #203, #121 ) ;
#263 = CIRCLE ( 'NONE', #219, 0.2400000000000148959 ) ;
#264 = LOCAL_TIME ( 8, 29, 33.00000000000000000, #4 ) ;
#265 = ORIENTED_EDGE ( 'NONE', *, *, #104, .T. ) ;
#266 = PERSON_AND_ORGANIZATION ( #111, #187 ) ;
#267 = VERTEX_POINT ( 'NONE', #108 ) ;
#268 = DIRECTION ( 'NONE',  ( -0.7071067811865777708, 0.000000000000000000, 0.7071067811865173747 ) ) ;
#269 = DATE_TIME_ROLE ( 'classification_date' ) ;
#270 = DIRECTION ( 'NONE',  ( 0.000000000000000000, 0.000000000000000000, -1.000000000000000000 ) ) ;
#271 =( GEOMETRIC_REPRESENTATION_CONTEXT ( 3 ) GLOBAL_UNCERTAINTY_ASSIGNED_CONTEXT ( ( #25 ) ) GLOBAL_UNIT_ASSIGNED_CONTEXT ( ( #255, #24, #178 ) ) REPRESENTATION_CONTEXT ( 'NONE', 'WORKASPACE' ) );
#272 = DIRECTION ( 'NONE',  ( 0.000000000000000000, 0.000000000000000000, -1.000000000000000000 ) ) ;
#273 = LINE ( 'NONE', #15, #100 ) ;
#274 = FACE_OUTER_BOUND ( 'NONE', #34, .T. ) ;
#275 = EDGE_CURVE ( 'NONE', #6, #180, #143, .T. ) ;
#276 = LENGTH_MEASURE_WITH_UNIT ( LENGTH_MEASURE( 0.02539999999999999897 ), #129 );
#277 = ADVANCED_FACE ( 'NONE', ( #29 ), #218, .T. ) ;
#278 = CARTESIAN_POINT ( 'NONE',  ( 12.00000000000000178, 0.000000000000000000, 0.2400000000000148959 ) ) ;
ENDSEC;
END-ISO-10303-21;
