ISO-10303-21;
HEADER;
FILE_DESCRIPTION (( 'STEP AP203' ),
    '1' );
FILE_NAME ('NIL08-012.000-SL.step',
    '2023-06-07T12:29:27',
    ( '' ),
    ( '' ),
    'SwSTEP 2.0',
    'SolidWorks 2021',
    '' );
FILE_SCHEMA (( 'CONFIG_CONTROL_DESIGN' ));
ENDSEC;

DATA;
#1 = DIRECTION ( 'NONE',  ( -1.000000000000000000, -0.000000000000000000, -0.000000000000000000 ) ) ;
#2 = DIRECTION ( 'NONE',  ( 1.000000000000000000, -0.000000000000000000, -0.000000000000000000 ) ) ;
#3 = CC_DESIGN_DATE_AND_TIME_ASSIGNMENT ( #122, #120, ( #203 ) ) ;
#4 = PERSON_AND_ORGANIZATION ( #79, #90 ) ;
#5 = APPLICATION_PROTOCOL_DEFINITION ( 'international standard', 'config_control_design', 1994, #11 ) ;
#6 = VECTOR ( 'NONE', #236, 39.37007874015748143 ) ;
#7 =( NAMED_UNIT ( * ) PLANE_ANGLE_UNIT ( ) SI_UNIT ( $, .RADIAN. ) );
#8 = CARTESIAN_POINT ( 'NONE',  ( 6.000000000000000888, 0.000000000000000000, 0.2400000000000072353 ) ) ;
#9 = PRODUCT_DEFINITION ( 'UNKNOWN', '', #56, #127 ) ;
#10 =( LENGTH_UNIT ( ) NAMED_UNIT ( * ) SI_UNIT ( $, .METRE. ) );
#11 = APPLICATION_CONTEXT ( 'configuration controlled 3d designs of mechanical parts and assemblies' ) ;
#12 = VECTOR ( 'NONE', #185, 39.37007874015748143 ) ;
#13 = ORIENTED_EDGE ( 'NONE', *, *, #121, .T. ) ;
#14 = EDGE_CURVE ( 'NONE', #274, #189, #252, .T. ) ;
#15 = ADVANCED_FACE ( 'NONE', ( #233 ), #126, .T. ) ;
#16 = ORIENTED_EDGE ( 'NONE', *, *, #76, .T. ) ;
#17 = APPROVAL_STATUS ( 'not_yet_approved' ) ;
#18 = EDGE_LOOP ( 'NONE', ( #234, #107, #253, #248 ) ) ;
#19 = PERSON_AND_ORGANIZATION_ROLE ( 'design_supplier' ) ;
#20 = CARTESIAN_POINT ( 'NONE',  ( 6.000000000000000888, 0.000000000000000000, 0.000000000000000000 ) ) ;
#21 = CYLINDRICAL_SURFACE ( 'NONE', #113, 0.2500000000000000000 ) ;
#22 = AXIS2_PLACEMENT_3D ( 'NONE', #219, #194, #241 ) ;
#23 = LINE ( 'NONE', #47, #6 ) ;
#24 = EDGE_CURVE ( 'NONE', #123, #189, #23, .T. ) ;
#25 = ADVANCED_FACE ( 'NONE', ( #112 ), #70, .T. ) ;
#26 = CC_DESIGN_PERSON_AND_ORGANIZATION_ASSIGNMENT ( #188, #58, ( #56 ) ) ;
#27 = CARTESIAN_POINT ( 'NONE',  ( 5.990000000000006430, 0.000000000000000000, 0.000000000000000000 ) ) ;
#28 = DIRECTION ( 'NONE',  ( 1.000000000000000000, -0.000000000000000000, -0.000000000000000000 ) ) ;
#29 = CARTESIAN_POINT ( 'NONE',  ( -5.989999999999988667, 0.000000000000000000, 0.000000000000000000 ) ) ;
#30 = LENGTH_MEASURE_WITH_UNIT ( LENGTH_MEASURE( 0.02539999999999999897 ), #10 );
#31 = CARTESIAN_POINT ( 'NONE',  ( -6.000000000000000888, 0.000000000000000000, 0.000000000000000000 ) ) ;
#32 = DIRECTION ( 'NONE',  ( 1.000000000000000000, 0.000000000000000000, 0.000000000000000000 ) ) ;
#33 = VECTOR ( 'NONE', #114, 39.37007874015748143 ) ;
#34 = CARTESIAN_POINT ( 'NONE',  ( -6.000000000000000888, 0.000000000000000000, -0.2399999999999886668 ) ) ;
#35 = APPROVAL_DATE_TIME ( #227, #143 ) ;
#36 = APPROVAL_DATE_TIME ( #208, #137 ) ;
#37 = PRODUCT_RELATED_PRODUCT_CATEGORY ( 'detail', '', ( #57 ) ) ;
#38 = CONICAL_SURFACE ( 'NONE', #195, 0.2400000000000072353, 0.7853981633974056464 ) ;
#39 = ORIENTED_EDGE ( 'NONE', *, *, #63, .T. ) ;
#40 = PERSON_AND_ORGANIZATION ( #79, #90 ) ;
#41 = ADVANCED_FACE ( 'NONE', ( #198 ), #265, .T. ) ;
#42 = APPROVAL_ROLE ( '' ) ;
#43 = ORIENTED_EDGE ( 'NONE', *, *, #246, .T. ) ;
#44 = AXIS2_PLACEMENT_3D ( 'NONE', #277, #95, #263 ) ;
#45 = ORIENTED_EDGE ( 'NONE', *, *, #255, .F. ) ;
#46 = VERTEX_POINT ( 'NONE', #176 ) ;
#47 = CARTESIAN_POINT ( 'NONE',  ( -5.989999999999988667, 3.061616997868383018E-17, 0.2500000000000000000 ) ) ;
#48 = CC_DESIGN_PERSON_AND_ORGANIZATION_ASSIGNMENT ( #40, #146, ( #203 ) ) ;
#49 = CIRCLE ( 'NONE', #74, 0.2400000000000072353 ) ;
#50 = DIRECTION ( 'NONE',  ( 0.000000000000000000, 0.000000000000000000, -1.000000000000000000 ) ) ;
#51 = PLANE ( 'NONE',  #22 ) ;
#52 = CARTESIAN_POINT ( 'NONE',  ( -5.989999999999988667, 0.000000000000000000, 0.2500000000000000000 ) ) ;
#53 = AXIS2_PLACEMENT_3D ( 'NONE', #31, #247, #100 ) ;
#54 = CARTESIAN_POINT ( 'NONE',  ( 6.000000000000000888, 0.000000000000000000, 0.000000000000000000 ) ) ;
#55 = APPROVAL_STATUS ( 'not_yet_approved' ) ;
#56 = PRODUCT_DEFINITION_FORMATION_WITH_SPECIFIED_SOURCE ( 'ANY', '', #57, .NOT_KNOWN. ) ;
#57 = PRODUCT ( 'NIL08-012.000-SL', 'NIL08-012.000-SL', '', ( #75 ) ) ;
#58 = PERSON_AND_ORGANIZATION_ROLE ( 'creator' ) ;
#59 = APPROVAL_STATUS ( 'not_yet_approved' ) ;
#60 = ORIENTED_EDGE ( 'NONE', *, *, #206, .F. ) ;
#61 = AXIS2_PLACEMENT_3D ( 'NONE', #94, #238, #260 ) ;
#62 = DATE_TIME_ROLE ( 'creation_date' ) ;
#63 = EDGE_CURVE ( 'NONE', #123, #270, #84, .T. ) ;
#64 = ORIENTED_EDGE ( 'NONE', *, *, #24, .T. ) ;
#65 = CIRCLE ( 'NONE', #242, 0.2500000000000000000 ) ;
#66 = ORIENTED_EDGE ( 'NONE', *, *, #174, .F. ) ;
#67 = FACE_OUTER_BOUND ( 'NONE', #89, .T. ) ;
#68 = DIRECTION ( 'NONE',  ( 1.000000000000000000, -0.000000000000000000, -0.000000000000000000 ) ) ;
#69 = APPROVAL_PERSON_ORGANIZATION ( #214, #137, #187 ) ;
#70 = CONICAL_SURFACE ( 'NONE', #184, 0.2400000000000072353, 0.7853981633974056464 ) ;
#71 = DIRECTION ( 'NONE',  ( 0.000000000000000000, 0.000000000000000000, -1.000000000000000000 ) ) ;
#72 = FACE_OUTER_BOUND ( 'NONE', #254, .T. ) ;
#73 = PERSON_AND_ORGANIZATION_ROLE ( 'creator' ) ;
#74 = AXIS2_PLACEMENT_3D ( 'NONE', #207, #222, #183 ) ;
#75 = MECHANICAL_CONTEXT ( 'NONE', #11, 'mechanical' ) ;
#76 = EDGE_CURVE ( 'NONE', #215, #274, #256, .T. ) ;
#77 = MANIFOLD_SOLID_BREP ( 'Chamfer1', #151 ) ;
#78 = CALENDAR_DATE ( 2023, 7, 6 ) ;
#79 = PERSON ( 'UNSPECIFIED', 'UNSPECIFIED', 'UNSPECIFIED', ('UNSPECIFIED'), ('UNSPECIFIED'), ('UNSPECIFIED') ) ;
#80 = CALENDAR_DATE ( 2023, 7, 6 ) ;
#81 = ORIENTED_EDGE ( 'NONE', *, *, #174, .T. ) ;
#82 = COORDINATED_UNIVERSAL_TIME_OFFSET ( 5, 0, .BEHIND. ) ;
#83 = ORIENTED_EDGE ( 'NONE', *, *, #63, .F. ) ;
#84 = CIRCLE ( 'NONE', #44, 0.2399999999999886668 ) ;
#85 = EDGE_LOOP ( 'NONE', ( #66, #16, #105, #103 ) ) ;
#86 = CC_DESIGN_DATE_AND_TIME_ASSIGNMENT ( #190, #62, ( #9 ) ) ;
#87 = COORDINATED_UNIVERSAL_TIME_OFFSET ( 5, 0, .BEHIND. ) ;
#88 = ORIENTED_EDGE ( 'NONE', *, *, #93, .T. ) ;
#89 = EDGE_LOOP ( 'NONE', ( #144, #45, #13, #230 ) ) ;
#90 = ORGANIZATION ( 'UNSPECIFIED', 'UNSPECIFIED', '' ) ;
#91 = DIRECTION ( 'NONE',  ( 0.000000000000000000, 0.000000000000000000, 1.000000000000000000 ) ) ;
#92 = LINE ( 'NONE', #175, #33 ) ;
#93 = EDGE_CURVE ( 'NONE', #274, #215, #65, .T. ) ;
#94 = CARTESIAN_POINT ( 'NONE',  ( 5.990000000000006430, 0.000000000000000000, 0.000000000000000000 ) ) ;
#95 = DIRECTION ( 'NONE',  ( -1.000000000000000000, -0.000000000000000000, -0.000000000000000000 ) ) ;
#96 = DIRECTION ( 'NONE',  ( -1.000000000000000000, 0.000000000000000000, 0.000000000000000000 ) ) ;
#97 = PLANE ( 'NONE',  #53 ) ;
#98 = FACE_OUTER_BOUND ( 'NONE', #273, .T. ) ;
#99 = CIRCLE ( 'NONE', #152, 0.2400000000000072353 ) ;
#100 = DIRECTION ( 'NONE',  ( 0.000000000000000000, 0.000000000000000000, -1.000000000000000000 ) ) ;
#101 = EDGE_CURVE ( 'NONE', #189, #46, #201, .T. ) ;
#102 = CARTESIAN_POINT ( 'NONE',  ( -6.000000000000000888, 0.000000000000000000, 0.000000000000000000 ) ) ;
#103 = ORIENTED_EDGE ( 'NONE', *, *, #101, .T. ) ;
#104 = APPLICATION_CONTEXT ( 'configuration controlled 3d designs of mechanical parts and assemblies' ) ;
#105 = ORIENTED_EDGE ( 'NONE', *, *, #14, .T. ) ;
#106 = CC_DESIGN_APPROVAL ( #137, ( #203 ) ) ;
#107 = ORIENTED_EDGE ( 'NONE', *, *, #206, .T. ) ;
#108 = SECURITY_CLASSIFICATION_LEVEL ( 'unclassified' ) ;
#109 = DIRECTION ( 'NONE',  ( -1.000000000000000000, -0.000000000000000000, -0.000000000000000000 ) ) ;
#110 = CARTESIAN_POINT ( 'NONE',  ( 6.000000000000000888, 0.000000000000000000, 0.000000000000000000 ) ) ;
#111 = LOCAL_TIME ( 8, 29, 27.00000000000000000, #160 ) ;
#112 = FACE_OUTER_BOUND ( 'NONE', #18, .T. ) ;
#113 = AXIS2_PLACEMENT_3D ( 'NONE', #110, #275, #91 ) ;
#114 = DIRECTION ( 'NONE',  ( 0.7071067811865777708, 0.000000000000000000, -0.7071067811865173747 ) ) ;
#115 = CC_DESIGN_PERSON_AND_ORGANIZATION_ASSIGNMENT ( #117, #162, ( #57 ) ) ;
#116 = DIRECTION ( 'NONE',  ( -1.000000000000000000, -0.000000000000000000, -0.000000000000000000 ) ) ;
#117 = PERSON_AND_ORGANIZATION ( #79, #90 ) ;
#118 = ADVANCED_FACE ( 'NONE', ( #67 ), #266, .T. ) ;
#119 = VECTOR ( 'NONE', #193, 39.37007874015748143 ) ;
#120 = DATE_TIME_ROLE ( 'classification_date' ) ;
#121 = EDGE_CURVE ( 'NONE', #270, #46, #92, .T. ) ;
#122 = DATE_AND_TIME ( #229, #225 ) ;
#123 = VERTEX_POINT ( 'NONE', #179 ) ;
#124 = AXIS2_PLACEMENT_3D ( 'NONE', #102, #116, #163 ) ;
#125 = CALENDAR_DATE ( 2023, 7, 6 ) ;
#126 = CYLINDRICAL_SURFACE ( 'NONE', #181, 0.2500000000000000000 ) ;
#127 = DESIGN_CONTEXT ( 'detailed design', #104, 'design' ) ;
#128 = ORIENTED_EDGE ( 'NONE', *, *, #249, .T. ) ;
#129 = DIRECTION ( 'NONE',  ( 0.000000000000000000, 0.000000000000000000, 1.000000000000000000 ) ) ;
#130 = CC_DESIGN_APPROVAL ( #186, ( #56 ) ) ;
#131 = CARTESIAN_POINT ( 'NONE',  ( 6.000000000000000888, 0.000000000000000000, 0.000000000000000000 ) ) ;
#132 = ADVANCED_FACE ( 'NONE', ( #72 ), #38, .T. ) ;
#133 = DIRECTION ( 'NONE',  ( 0.000000000000000000, 0.000000000000000000, 1.000000000000000000 ) ) ;
#134 = DIRECTION ( 'NONE',  ( 0.000000000000000000, 0.000000000000000000, -1.000000000000000000 ) ) ;
#135 = AXIS2_PLACEMENT_3D ( 'NONE', #262, #2, #196 ) ;
#136 = DIRECTION ( 'NONE',  ( 0.000000000000000000, 0.000000000000000000, 1.000000000000000000 ) ) ;
#137 = APPROVAL ( #17, 'UNSPECIFIED' ) ;
#138 = DIRECTION ( 'NONE',  ( 1.000000000000000000, 0.000000000000000000, 0.000000000000000000 ) ) ;
#139 = DIRECTION ( 'NONE',  ( 0.000000000000000000, 0.000000000000000000, -1.000000000000000000 ) ) ;
#140 = APPROVAL_ROLE ( '' ) ;
#141 = ADVANCED_BREP_SHAPE_REPRESENTATION ( 'NIL08-012.000-SL', ( #77, #250 ), #177 ) ;
#142 = DATE_AND_TIME ( #125, #145 ) ;
#143 = APPROVAL ( #55, 'UNSPECIFIED' ) ;
#144 = ORIENTED_EDGE ( 'NONE', *, *, #24, .F. ) ;
#145 = LOCAL_TIME ( 8, 29, 27.00000000000000000, #272 ) ;
#146 = PERSON_AND_ORGANIZATION_ROLE ( 'classification_officer' ) ;
#147 = ORIENTED_EDGE ( 'NONE', *, *, #76, .F. ) ;
#148 = EDGE_LOOP ( 'NONE', ( #83, #64, #166, #171 ) ) ;
#149 = ADVANCED_FACE ( 'NONE', ( #202 ), #51, .T. ) ;
#150 = ORIENTED_EDGE ( 'NONE', *, *, #223, .F. ) ;
#151 = CLOSED_SHELL ( 'NONE', ( #41, #25, #15, #199, #149, #235, #132, #118 ) ) ;
#152 = AXIS2_PLACEMENT_3D ( 'NONE', #54, #138, #139 ) ;
#153 = CARTESIAN_POINT ( 'NONE',  ( 6.000000000000000888, 3.000384657911059867E-17, -0.2400000000000072353 ) ) ;
#154 = CARTESIAN_POINT ( 'NONE',  ( 6.000000000000000888, 3.061616997868382402E-17, -0.2500000000000000000 ) ) ;
#155 = VECTOR ( 'NONE', #226, 39.37007874015748143 ) ;
#156 = CARTESIAN_POINT ( 'NONE',  ( -5.989999999999988667, 0.000000000000000000, 0.000000000000000000 ) ) ;
#157 = DIRECTION ( 'NONE',  ( 1.000000000000000000, -0.000000000000000000, -0.000000000000000000 ) ) ;
#158 = CARTESIAN_POINT ( 'NONE',  ( 6.000000000000000888, 0.000000000000000000, 0.000000000000000000 ) ) ;
#159 = AXIS2_PLACEMENT_3D ( 'NONE', #29, #68, #178 ) ;
#160 = COORDINATED_UNIVERSAL_TIME_OFFSET ( 5, 0, .BEHIND. ) ;
#161 = CARTESIAN_POINT ( 'NONE',  ( 6.000000000000000888, 0.000000000000000000, 0.2400000000000072353 ) ) ;
#162 = PERSON_AND_ORGANIZATION_ROLE ( 'design_owner' ) ;
#163 = DIRECTION ( 'NONE',  ( 0.000000000000000000, 0.000000000000000000, -1.000000000000000000 ) ) ;
#164 = EDGE_CURVE ( 'NONE', #46, #189, #232, .T. ) ;
#165 = PERSON_AND_ORGANIZATION ( #79, #90 ) ;
#166 = ORIENTED_EDGE ( 'NONE', *, *, #164, .F. ) ;
#167 = VERTEX_POINT ( 'NONE', #153 ) ;
#168 = APPROVAL_PERSON_ORGANIZATION ( #269, #186, #42 ) ;
#169 = ORIENTED_EDGE ( 'NONE', *, *, #14, .F. ) ;
#170 = CARTESIAN_POINT ( 'NONE',  ( 6.000000000000000888, 0.000000000000000000, 0.2500000000000000000 ) ) ;
#171 = ORIENTED_EDGE ( 'NONE', *, *, #121, .F. ) ;
#172 = CIRCLE ( 'NONE', #124, 0.2399999999999886668 ) ;
#173 = LINE ( 'NONE', #258, #12 ) ;
#174 = EDGE_CURVE ( 'NONE', #215, #46, #200, .T. ) ;
#175 = CARTESIAN_POINT ( 'NONE',  ( -5.989999999999988667, 0.000000000000000000, -0.2500000000000000000 ) ) ;
#176 = CARTESIAN_POINT ( 'NONE',  ( -5.989999999999988667, 3.061616997868382402E-17, -0.2500000000000000000 ) ) ;
#177 =( GEOMETRIC_REPRESENTATION_CONTEXT ( 3 ) GLOBAL_UNCERTAINTY_ASSIGNED_CONTEXT ( ( #276 ) ) GLOBAL_UNIT_ASSIGNED_CONTEXT ( ( #205, #7, #182 ) ) REPRESENTATION_CONTEXT ( 'NONE', 'WORKASPACE' ) );
#178 = DIRECTION ( 'NONE',  ( 0.000000000000000000, 0.000000000000000000, -1.000000000000000000 ) ) ;
#179 = CARTESIAN_POINT ( 'NONE',  ( -6.000000000000000888, 3.000384657910945852E-17, 0.2399999999999886668 ) ) ;
#180 = CARTESIAN_POINT ( 'NONE',  ( 0.000000000000000000, 0.000000000000000000, 0.000000000000000000 ) ) ;
#181 = AXIS2_PLACEMENT_3D ( 'NONE', #20, #109, #218 ) ;
#182 =( NAMED_UNIT ( * ) SI_UNIT ( $, .STERADIAN. ) SOLID_ANGLE_UNIT ( ) );
#183 = DIRECTION ( 'NONE',  ( 0.000000000000000000, 0.000000000000000000, -1.000000000000000000 ) ) ;
#184 = AXIS2_PLACEMENT_3D ( 'NONE', #131, #220, #129 ) ;
#185 = DIRECTION ( 'NONE',  ( -0.7071067811865777708, 8.659560562354564312E-17, -0.7071067811865173747 ) ) ;
#186 = APPROVAL ( #59, 'UNSPECIFIED' ) ;
#187 = APPROVAL_ROLE ( '' ) ;
#188 = PERSON_AND_ORGANIZATION ( #79, #90 ) ;
#189 = VERTEX_POINT ( 'NONE', #52 ) ;
#190 = DATE_AND_TIME ( #80, #217 ) ;
#191 = AXIS2_PLACEMENT_3D ( 'NONE', #259, #28, #134 ) ;
#192 = APPROVAL_DATE_TIME ( #142, #186 ) ;
#193 = DIRECTION ( 'NONE',  ( -1.000000000000000000, -0.000000000000000000, -0.000000000000000000 ) ) ;
#194 = DIRECTION ( 'NONE',  ( 1.000000000000000000, 0.000000000000000000, 0.000000000000000000 ) ) ;
#195 = AXIS2_PLACEMENT_3D ( 'NONE', #158, #240, #133 ) ;
#196 = DIRECTION ( 'NONE',  ( 0.000000000000000000, 0.000000000000000000, -1.000000000000000000 ) ) ;
#197 = DIMENSIONAL_EXPONENTS ( 1.000000000000000000, 0.000000000000000000, 0.000000000000000000, 0.000000000000000000, 0.000000000000000000, 0.000000000000000000, 0.000000000000000000 ) ;
#198 = FACE_OUTER_BOUND ( 'NONE', #148, .T. ) ;
#199 = ADVANCED_FACE ( 'NONE', ( #216 ), #21, .T. ) ;
#200 = LINE ( 'NONE', #154, #237 ) ;
#201 = CIRCLE ( 'NONE', #221, 0.2500000000000000000 ) ;
#202 = FACE_OUTER_BOUND ( 'NONE', #211, .T. ) ;
#203 = SECURITY_CLASSIFICATION ( '', '', #108 ) ;
#204 = CARTESIAN_POINT ( 'NONE',  ( 5.990000000000006430, 3.061616997868382402E-17, -0.2500000000000000000 ) ) ;
#205 =( CONVERSION_BASED_UNIT ( 'INCH', #30 ) LENGTH_UNIT ( ) NAMED_UNIT ( #197 ) );
#206 = EDGE_CURVE ( 'NONE', #167, #215, #173, .T. ) ;
#207 = CARTESIAN_POINT ( 'NONE',  ( 6.000000000000000888, 0.000000000000000000, 0.000000000000000000 ) ) ;
#208 = DATE_AND_TIME ( #251, #224 ) ;
#209 = ORIENTED_EDGE ( 'NONE', *, *, #255, .T. ) ;
#210 = SHAPE_DEFINITION_REPRESENTATION ( #243, #141 ) ;
#211 = EDGE_LOOP ( 'NONE', ( #268, #128 ) ) ;
#212 = COORDINATED_UNIVERSAL_TIME_OFFSET ( 5, 0, .BEHIND. ) ;
#213 = VERTEX_POINT ( 'NONE', #161 ) ;
#214 = PERSON_AND_ORGANIZATION ( #79, #90 ) ;
#215 = VERTEX_POINT ( 'NONE', #204 ) ;
#216 = FACE_OUTER_BOUND ( 'NONE', #85, .T. ) ;
#217 = LOCAL_TIME ( 8, 29, 27.00000000000000000, #82 ) ;
#218 = DIRECTION ( 'NONE',  ( 0.000000000000000000, 0.000000000000000000, 1.000000000000000000 ) ) ;
#219 = CARTESIAN_POINT ( 'NONE',  ( 6.000000000000000888, 0.000000000000000000, 0.000000000000000000 ) ) ;
#220 = DIRECTION ( 'NONE',  ( -1.000000000000000000, 0.000000000000000000, 0.000000000000000000 ) ) ;
#221 = AXIS2_PLACEMENT_3D ( 'NONE', #156, #157, #50 ) ;
#222 = DIRECTION ( 'NONE',  ( 1.000000000000000000, 0.000000000000000000, 0.000000000000000000 ) ) ;
#223 = EDGE_CURVE ( 'NONE', #213, #167, #99, .T. ) ;
#224 = LOCAL_TIME ( 8, 29, 27.00000000000000000, #212 ) ;
#225 = LOCAL_TIME ( 8, 29, 27.00000000000000000, #87 ) ;
#226 = DIRECTION ( 'NONE',  ( -0.7071067811865777708, 0.000000000000000000, 0.7071067811865173747 ) ) ;
#227 = DATE_AND_TIME ( #78, #111 ) ;
#228 = APPROVAL_PERSON_ORGANIZATION ( #245, #143, #140 ) ;
#229 = CALENDAR_DATE ( 2023, 7, 6 ) ;
#230 = ORIENTED_EDGE ( 'NONE', *, *, #101, .F. ) ;
#231 = EDGE_LOOP ( 'NONE', ( #88, #81, #257, #169 ) ) ;
#232 = CIRCLE ( 'NONE', #191, 0.2500000000000000000 ) ;
#233 = FACE_OUTER_BOUND ( 'NONE', #231, .T. ) ;
#234 = ORIENTED_EDGE ( 'NONE', *, *, #249, .F. ) ;
#235 = ADVANCED_FACE ( 'NONE', ( #98 ), #97, .F. ) ;
#236 = DIRECTION ( 'NONE',  ( 0.7071067811865777708, 8.659560562354564312E-17, 0.7071067811865173747 ) ) ;
#237 = VECTOR ( 'NONE', #1, 39.37007874015748143 ) ;
#238 = DIRECTION ( 'NONE',  ( -1.000000000000000000, 0.000000000000000000, 0.000000000000000000 ) ) ;
#239 = CC_DESIGN_PERSON_AND_ORGANIZATION_ASSIGNMENT ( #4, #73, ( #9 ) ) ;
#240 = DIRECTION ( 'NONE',  ( -1.000000000000000000, 0.000000000000000000, 0.000000000000000000 ) ) ;
#241 = DIRECTION ( 'NONE',  ( 0.000000000000000000, 0.000000000000000000, -1.000000000000000000 ) ) ;
#242 = AXIS2_PLACEMENT_3D ( 'NONE', #27, #96, #71 ) ;
#243 = PRODUCT_DEFINITION_SHAPE ( 'NONE', 'NONE',  #9 ) ;
#244 = LINE ( 'NONE', #8, #155 ) ;
#245 = PERSON_AND_ORGANIZATION ( #79, #90 ) ;
#246 = EDGE_CURVE ( 'NONE', #213, #274, #244, .T. ) ;
#247 = DIRECTION ( 'NONE',  ( 1.000000000000000000, 0.000000000000000000, 0.000000000000000000 ) ) ;
#248 = ORIENTED_EDGE ( 'NONE', *, *, #246, .F. ) ;
#249 = EDGE_CURVE ( 'NONE', #167, #213, #49, .T. ) ;
#250 = AXIS2_PLACEMENT_3D ( 'NONE', #180, #136, #32 ) ;
#251 = CALENDAR_DATE ( 2023, 7, 6 ) ;
#252 = LINE ( 'NONE', #170, #119 ) ;
#253 = ORIENTED_EDGE ( 'NONE', *, *, #93, .F. ) ;
#254 = EDGE_LOOP ( 'NONE', ( #60, #150, #43, #147 ) ) ;
#255 = EDGE_CURVE ( 'NONE', #270, #123, #172, .T. ) ;
#256 = CIRCLE ( 'NONE', #61, 0.2500000000000000000 ) ;
#257 = ORIENTED_EDGE ( 'NONE', *, *, #164, .T. ) ;
#258 = CARTESIAN_POINT ( 'NONE',  ( 6.000000000000000888, 2.939152317953736099E-17, -0.2400000000000072353 ) ) ;
#259 = CARTESIAN_POINT ( 'NONE',  ( -5.989999999999988667, 0.000000000000000000, 0.000000000000000000 ) ) ;
#260 = DIRECTION ( 'NONE',  ( 0.000000000000000000, 0.000000000000000000, -1.000000000000000000 ) ) ;
#261 = CC_DESIGN_SECURITY_CLASSIFICATION ( #203, ( #56 ) ) ;
#262 = CARTESIAN_POINT ( 'NONE',  ( -5.989999999999988667, 0.000000000000000000, 0.000000000000000000 ) ) ;
#263 = DIRECTION ( 'NONE',  ( 0.000000000000000000, 0.000000000000000000, -1.000000000000000000 ) ) ;
#264 = APPLICATION_PROTOCOL_DEFINITION ( 'international standard', 'config_control_design', 1994, #104 ) ;
#265 = CONICAL_SURFACE ( 'NONE', #159, 0.2500000000000000000, 0.7853981633974056464 ) ;
#266 = CONICAL_SURFACE ( 'NONE', #135, 0.2500000000000000000, 0.7853981633974056464 ) ;
#267 = CARTESIAN_POINT ( 'NONE',  ( 5.990000000000006430, 0.000000000000000000, 0.2500000000000000000 ) ) ;
#268 = ORIENTED_EDGE ( 'NONE', *, *, #223, .T. ) ;
#269 = PERSON_AND_ORGANIZATION ( #79, #90 ) ;
#270 = VERTEX_POINT ( 'NONE', #34 ) ;
#271 = CC_DESIGN_APPROVAL ( #143, ( #9 ) ) ;
#272 = COORDINATED_UNIVERSAL_TIME_OFFSET ( 5, 0, .BEHIND. ) ;
#273 = EDGE_LOOP ( 'NONE', ( #209, #39 ) ) ;
#274 = VERTEX_POINT ( 'NONE', #267 ) ;
#275 = DIRECTION ( 'NONE',  ( -1.000000000000000000, -0.000000000000000000, -0.000000000000000000 ) ) ;
#276 = UNCERTAINTY_MEASURE_WITH_UNIT (LENGTH_MEASURE( 1.000000000000000082E-05 ), #205, 'distance_accuracy_value', 'NONE');
#277 = CARTESIAN_POINT ( 'NONE',  ( -6.000000000000000888, 0.000000000000000000, 0.000000000000000000 ) ) ;
#278 = CC_DESIGN_PERSON_AND_ORGANIZATION_ASSIGNMENT ( #165, #19, ( #56 ) ) ;
ENDSEC;
END-ISO-10303-21;
