ISO-10303-21;
HEADER;
FILE_DESCRIPTION (( 'STEP AP203' ),
    '1' );
FILE_NAME ('NIL06SS-012.000-SL.step',
    '2023-06-07T12:29:22',
    ( '' ),
    ( '' ),
    'SwSTEP 2.0',
    'SolidWorks 2021',
    '' );
FILE_SCHEMA (( 'CONFIG_CONTROL_DESIGN' ));
ENDSEC;

DATA;
#1 = APPROVAL_DATE_TIME ( #126, #63 ) ;
#2 = AXIS2_PLACEMENT_3D ( 'NONE', #23, #232, #3 ) ;
#3 = DIRECTION ( 'NONE',  ( 1.000000000000000000, 0.000000000000000000, 0.000000000000000000 ) ) ;
#4 = ORIENTED_EDGE ( 'NONE', *, *, #21, .T. ) ;
#5 = DIRECTION ( 'NONE',  ( 0.000000000000000000, 0.000000000000000000, -1.000000000000000000 ) ) ;
#6 = CARTESIAN_POINT ( 'NONE',  ( 6.000000000000000888, 0.000000000000000000, 0.1775000000000053757 ) ) ;
#7 = CARTESIAN_POINT ( 'NONE',  ( -5.989999999999990443, 0.000000000000000000, 0.000000000000000000 ) ) ;
#8 = APPROVAL ( #81, 'UNSPECIFIED' ) ;
#9 = ORIENTED_EDGE ( 'NONE', *, *, #157, .F. ) ;
#10 = APPROVAL_PERSON_ORGANIZATION ( #189, #63, #235 ) ;
#11 = CARTESIAN_POINT ( 'NONE',  ( 5.990000000000005542, 2.296212748401286801E-17, -0.1875000000000000278 ) ) ;
#12 = VECTOR ( 'NONE', #46, 39.37007874015748854 ) ;
#13 = APPROVAL_PERSON_ORGANIZATION ( #124, #52, #144 ) ;
#14 = DIRECTION ( 'NONE',  ( 0.000000000000000000, 0.000000000000000000, -1.000000000000000000 ) ) ;
#15 = DIRECTION ( 'NONE',  ( 0.000000000000000000, 0.000000000000000000, -1.000000000000000000 ) ) ;
#16 = DIRECTION ( 'NONE',  ( 0.000000000000000000, 0.000000000000000000, -1.000000000000000000 ) ) ;
#17 = CARTESIAN_POINT ( 'NONE',  ( -5.989999999999990443, 0.000000000000000000, 0.000000000000000000 ) ) ;
#18 = PERSON_AND_ORGANIZATION ( #39, #92 ) ;
#19 = CONICAL_SURFACE ( 'NONE', #247, 0.1875000000000000278, 0.7853981633974447263 ) ;
#20 = DATE_AND_TIME ( #277, #132 ) ;
#21 = EDGE_CURVE ( 'NONE', #45, #89, #155, .T. ) ;
#22 = ADVANCED_FACE ( 'NONE', ( #42 ), #187, .T. ) ;
#23 = CARTESIAN_POINT ( 'NONE',  ( 0.000000000000000000, 0.000000000000000000, 0.000000000000000000 ) ) ;
#24 = VERTEX_POINT ( 'NONE', #6 ) ;
#25 = VERTEX_POINT ( 'NONE', #184 ) ;
#26 = CARTESIAN_POINT ( 'NONE',  ( 6.000000000000000888, 0.000000000000000000, 0.000000000000000000 ) ) ;
#27 = CARTESIAN_POINT ( 'NONE',  ( -5.989999999999990443, 2.296212748401286801E-17, -0.1875000000000000278 ) ) ;
#28 = VECTOR ( 'NONE', #139, 39.37007874015748143 ) ;
#29 = ADVANCED_FACE ( 'NONE', ( #202 ), #239, .T. ) ;
#30 = ORIENTED_EDGE ( 'NONE', *, *, #276, .F. ) ;
#31 = VERTEX_POINT ( 'NONE', #43 ) ;
#32 = CARTESIAN_POINT ( 'NONE',  ( -6.000000000000000888, 0.000000000000000000, 0.000000000000000000 ) ) ;
#33 = DIRECTION ( 'NONE',  ( -0.7071067811865499042, 8.659560562354900811E-17, -0.7071067811865450192 ) ) ;
#34 = DIRECTION ( 'NONE',  ( -1.000000000000000000, -0.000000000000000000, -0.000000000000000000 ) ) ;
#35 = DIRECTION ( 'NONE',  ( 0.7071067811865499042, 8.659560562354903276E-17, 0.7071067811865450192 ) ) ;
#36 = COORDINATED_UNIVERSAL_TIME_OFFSET ( 5, 0, .BEHIND. ) ;
#37 = PERSON_AND_ORGANIZATION_ROLE ( 'design_supplier' ) ;
#38 = ORIENTED_EDGE ( 'NONE', *, *, #253, .T. ) ;
#39 = PERSON ( 'UNSPECIFIED', 'UNSPECIFIED', 'UNSPECIFIED', ('UNSPECIFIED'), ('UNSPECIFIED'), ('UNSPECIFIED') ) ;
#40 = PRODUCT_DEFINITION_FORMATION_WITH_SPECIFIED_SOURCE ( 'ANY', '', #148, .NOT_KNOWN. ) ;
#41 = EDGE_LOOP ( 'NONE', ( #173, #162 ) ) ;
#42 = FACE_OUTER_BOUND ( 'NONE', #91, .T. ) ;
#43 = CARTESIAN_POINT ( 'NONE',  ( 5.990000000000005542, 0.000000000000000000, 0.1875000000000000278 ) ) ;
#44 = CC_DESIGN_PERSON_AND_ORGANIZATION_ASSIGNMENT ( #170, #236, ( #130 ) ) ;
#45 = VERTEX_POINT ( 'NONE', #135 ) ;
#46 = DIRECTION ( 'NONE',  ( 0.7071067811865499042, 0.000000000000000000, -0.7071067811865450192 ) ) ;
#47 = CARTESIAN_POINT ( 'NONE',  ( 6.000000000000000888, 0.000000000000000000, 0.000000000000000000 ) ) ;
#48 =( LENGTH_UNIT ( ) NAMED_UNIT ( * ) SI_UNIT ( $, .METRE. ) );
#49 =( NAMED_UNIT ( * ) SI_UNIT ( $, .STERADIAN. ) SOLID_ANGLE_UNIT ( ) );
#50 = PLANE ( 'NONE',  #257 ) ;
#51 = EDGE_CURVE ( 'NONE', #24, #84, #125, .T. ) ;
#52 = APPROVAL ( #191, 'UNSPECIFIED' ) ;
#53 = DIRECTION ( 'NONE',  ( 1.000000000000000000, 0.000000000000000000, 0.000000000000000000 ) ) ;
#54 = LOCAL_TIME ( 8, 29, 22.00000000000000000, #57 ) ;
#55 = SECURITY_CLASSIFICATION_LEVEL ( 'unclassified' ) ;
#56 = DATE_AND_TIME ( #252, #183 ) ;
#57 = COORDINATED_UNIVERSAL_TIME_OFFSET ( 5, 0, .BEHIND. ) ;
#58 = DATE_AND_TIME ( #76, #54 ) ;
#59 = ORIENTED_EDGE ( 'NONE', *, *, #105, .T. ) ;
#60 = AXIS2_PLACEMENT_3D ( 'NONE', #69, #248, #228 ) ;
#61 = DIRECTION ( 'NONE',  ( 0.000000000000000000, 0.000000000000000000, -1.000000000000000000 ) ) ;
#62 = DIRECTION ( 'NONE',  ( 0.000000000000000000, 0.000000000000000000, 1.000000000000000000 ) ) ;
#63 = APPROVAL ( #147, 'UNSPECIFIED' ) ;
#64 = CARTESIAN_POINT ( 'NONE',  ( 5.990000000000005542, 0.000000000000000000, 0.000000000000000000 ) ) ;
#65 = ORIENTED_EDGE ( 'NONE', *, *, #105, .F. ) ;
#66 = AXIS2_PLACEMENT_3D ( 'NONE', #207, #34, #14 ) ;
#67 = CYLINDRICAL_SURFACE ( 'NONE', #160, 0.1875000000000000278 ) ;
#68 =( CONVERSION_BASED_UNIT ( 'INCH', #93 ) LENGTH_UNIT ( ) NAMED_UNIT ( #196 ) );
#69 = CARTESIAN_POINT ( 'NONE',  ( -5.989999999999990443, 0.000000000000000000, 0.000000000000000000 ) ) ;
#70 = AXIS2_PLACEMENT_3D ( 'NONE', #64, #197, #5 ) ;
#71 = EDGE_CURVE ( 'NONE', #31, #82, #146, .T. ) ;
#72 = CARTESIAN_POINT ( 'NONE',  ( -5.989999999999990443, 0.000000000000000000, 0.1875000000000000278 ) ) ;
#73 = CARTESIAN_POINT ( 'NONE',  ( 6.000000000000000888, 0.000000000000000000, 0.1875000000000000278 ) ) ;
#74 = APPROVAL_PERSON_ORGANIZATION ( #18, #8, #193 ) ;
#75 = AXIS2_PLACEMENT_3D ( 'NONE', #225, #263, #134 ) ;
#76 = CALENDAR_DATE ( 2023, 7, 6 ) ;
#77 = ORIENTED_EDGE ( 'NONE', *, *, #138, .F. ) ;
#78 = APPLICATION_CONTEXT ( 'configuration controlled 3d designs of mechanical parts and assemblies' ) ;
#79 = COORDINATED_UNIVERSAL_TIME_OFFSET ( 5, 0, .BEHIND. ) ;
#80 = PERSON_AND_ORGANIZATION_ROLE ( 'design_owner' ) ;
#81 = APPROVAL_STATUS ( 'not_yet_approved' ) ;
#82 = VERTEX_POINT ( 'NONE', #11 ) ;
#83 = APPLICATION_PROTOCOL_DEFINITION ( 'international standard', 'config_control_design', 1994, #128 ) ;
#84 = VERTEX_POINT ( 'NONE', #265 ) ;
#85 = LINE ( 'NONE', #258, #227 ) ;
#86 = ADVANCED_FACE ( 'NONE', ( #222 ), #67, .T. ) ;
#87 = EDGE_LOOP ( 'NONE', ( #215, #194 ) ) ;
#88 = CARTESIAN_POINT ( 'NONE',  ( 6.000000000000000888, 0.000000000000000000, 0.000000000000000000 ) ) ;
#89 = VERTEX_POINT ( 'NONE', #27 ) ;
#90 = LOCAL_TIME ( 8, 29, 22.00000000000000000, #36 ) ;
#91 = EDGE_LOOP ( 'NONE', ( #129, #198, #221, #109 ) ) ;
#92 = ORGANIZATION ( 'UNSPECIFIED', 'UNSPECIFIED', '' ) ;
#93 = LENGTH_MEASURE_WITH_UNIT ( LENGTH_MEASURE( 0.02539999999999999897 ), #48 );
#94 = FACE_OUTER_BOUND ( 'NONE', #41, .T. ) ;
#95 = DIRECTION ( 'NONE',  ( 1.000000000000000000, 0.000000000000000000, 0.000000000000000000 ) ) ;
#96 = CC_DESIGN_DATE_AND_TIME_ASSIGNMENT ( #216, #99, ( #130 ) ) ;
#97 = CARTESIAN_POINT ( 'NONE',  ( 6.000000000000000888, 2.173748068486617696E-17, -0.1775000000000053757 ) ) ;
#98 = ADVANCED_FACE ( 'NONE', ( #113 ), #271, .T. ) ;
#99 = DATE_TIME_ROLE ( 'classification_date' ) ;
#100 = CIRCLE ( 'NONE', #178, 0.1875000000000000278 ) ;
#101 = CIRCLE ( 'NONE', #66, 0.1774999999999900824 ) ;
#102 = SHAPE_DEFINITION_REPRESENTATION ( #158, #255 ) ;
#103 = ORIENTED_EDGE ( 'NONE', *, *, #122, .T. ) ;
#104 = PERSON_AND_ORGANIZATION_ROLE ( 'creator' ) ;
#105 = EDGE_CURVE ( 'NONE', #82, #31, #153, .T. ) ;
#106 = PERSON_AND_ORGANIZATION_ROLE ( 'creator' ) ;
#107 = UNCERTAINTY_MEASURE_WITH_UNIT (LENGTH_MEASURE( 1.000000000000000082E-05 ), #68, 'distance_accuracy_value', 'NONE');
#108 = CC_DESIGN_PERSON_AND_ORGANIZATION_ASSIGNMENT ( #145, #37, ( #40 ) ) ;
#109 = ORIENTED_EDGE ( 'NONE', *, *, #127, .F. ) ;
#110 = PERSON_AND_ORGANIZATION ( #39, #92 ) ;
#111 = ORIENTED_EDGE ( 'NONE', *, *, #51, .F. ) ;
#112 = ORIENTED_EDGE ( 'NONE', *, *, #208, .F. ) ;
#113 = FACE_OUTER_BOUND ( 'NONE', #219, .T. ) ;
#114 = ORIENTED_EDGE ( 'NONE', *, *, #127, .T. ) ;
#115 = EDGE_LOOP ( 'NONE', ( #77, #59, #240, #182 ) ) ;
#116 = PRODUCT_DEFINITION ( 'UNKNOWN', '', #40, #151 ) ;
#117 = DIRECTION ( 'NONE',  ( 0.000000000000000000, 0.000000000000000000, -1.000000000000000000 ) ) ;
#118 = LINE ( 'NONE', #97, #209 ) ;
#119 = DIRECTION ( 'NONE',  ( 0.000000000000000000, 0.000000000000000000, -1.000000000000000000 ) ) ;
#120 = CARTESIAN_POINT ( 'NONE',  ( 6.000000000000000888, 0.000000000000000000, 0.000000000000000000 ) ) ;
#121 = CC_DESIGN_APPROVAL ( #52, ( #130 ) ) ;
#122 = EDGE_CURVE ( 'NONE', #25, #176, #85, .T. ) ;
#123 = CARTESIAN_POINT ( 'NONE',  ( 6.000000000000000888, 2.296212748401286801E-17, -0.1875000000000000278 ) ) ;
#124 = PERSON_AND_ORGANIZATION ( #39, #92 ) ;
#125 = CIRCLE ( 'NONE', #223, 0.1775000000000053757 ) ;
#126 = DATE_AND_TIME ( #212, #218 ) ;
#127 = EDGE_CURVE ( 'NONE', #24, #31, #231, .T. ) ;
#128 = APPLICATION_CONTEXT ( 'configuration controlled 3d designs of mechanical parts and assemblies' ) ;
#129 = ORIENTED_EDGE ( 'NONE', *, *, #180, .F. ) ;
#130 = SECURITY_CLASSIFICATION ( '', '', #55 ) ;
#131 = CLOSED_SHELL ( 'NONE', ( #98, #22, #29, #86, #229, #256, #213, #190 ) ) ;
#132 = LOCAL_TIME ( 8, 29, 22.00000000000000000, #79 ) ;
#133 = EDGE_LOOP ( 'NONE', ( #161, #261, #38, #273 ) ) ;
#134 = DIRECTION ( 'NONE',  ( 0.000000000000000000, 0.000000000000000000, -1.000000000000000000 ) ) ;
#135 = CARTESIAN_POINT ( 'NONE',  ( -6.000000000000000888, 0.000000000000000000, -0.1774999999999900824 ) ) ;
#136 = DIRECTION ( 'NONE',  ( -1.000000000000000000, -0.000000000000000000, -0.000000000000000000 ) ) ;
#137 = FACE_OUTER_BOUND ( 'NONE', #192, .T. ) ;
#138 = EDGE_CURVE ( 'NONE', #82, #89, #230, .T. ) ;
#139 = DIRECTION ( 'NONE',  ( -1.000000000000000000, -0.000000000000000000, -0.000000000000000000 ) ) ;
#140 = CONICAL_SURFACE ( 'NONE', #143, 0.1775000000000053757, 0.7853981633974447263 ) ;
#141 = LINE ( 'NONE', #73, #28 ) ;
#142 = DIRECTION ( 'NONE',  ( -0.7071067811865499042, 0.000000000000000000, 0.7071067811865450192 ) ) ;
#143 = AXIS2_PLACEMENT_3D ( 'NONE', #185, #267, #188 ) ;
#144 = APPROVAL_ROLE ( '' ) ;
#145 = PERSON_AND_ORGANIZATION ( #39, #92 ) ;
#146 = CIRCLE ( 'NONE', #75, 0.1875000000000000278 ) ;
#147 = APPROVAL_STATUS ( 'not_yet_approved' ) ;
#148 = PRODUCT ( 'NIL06SS-012.000-SL', 'NIL06SS-012.000-SL', '', ( #274 ) ) ;
#149 = APPROVAL_DATE_TIME ( #58, #8 ) ;
#150 = EDGE_CURVE ( 'NONE', #31, #176, #141, .T. ) ;
#151 = DESIGN_CONTEXT ( 'detailed design', #78, 'design' ) ;
#152 = ORIENTED_EDGE ( 'NONE', *, *, #122, .F. ) ;
#153 = CIRCLE ( 'NONE', #70, 0.1875000000000000278 ) ;
#154 = CARTESIAN_POINT ( 'NONE',  ( -5.989999999999990443, 0.000000000000000000, -0.1875000000000000278 ) ) ;
#155 = LINE ( 'NONE', #154, #12 ) ;
#156 = DIRECTION ( 'NONE',  ( 0.000000000000000000, 0.000000000000000000, 1.000000000000000000 ) ) ;
#157 = EDGE_CURVE ( 'NONE', #84, #82, #118, .T. ) ;
#158 = PRODUCT_DEFINITION_SHAPE ( 'NONE', 'NONE',  #116 ) ;
#159 = CC_DESIGN_PERSON_AND_ORGANIZATION_ASSIGNMENT ( #249, #104, ( #40 ) ) ;
#160 = AXIS2_PLACEMENT_3D ( 'NONE', #47, #181, #241 ) ;
#161 = ORIENTED_EDGE ( 'NONE', *, *, #71, .T. ) ;
#162 = ORIENTED_EDGE ( 'NONE', *, *, #174, .T. ) ;
#163 = FACE_OUTER_BOUND ( 'NONE', #175, .T. ) ;
#164 = DIRECTION ( 'NONE',  ( -1.000000000000000000, -0.000000000000000000, -0.000000000000000000 ) ) ;
#165 = DIRECTION ( 'NONE',  ( 1.000000000000000000, -0.000000000000000000, -0.000000000000000000 ) ) ;
#166 = CC_DESIGN_PERSON_AND_ORGANIZATION_ASSIGNMENT ( #110, #80, ( #148 ) ) ;
#167 = CC_DESIGN_APPROVAL ( #63, ( #116 ) ) ;
#168 = PLANE ( 'NONE',  #169 ) ;
#169 = AXIS2_PLACEMENT_3D ( 'NONE', #242, #266, #119 ) ;
#170 = PERSON_AND_ORGANIZATION ( #39, #92 ) ;
#171 = COORDINATED_UNIVERSAL_TIME_OFFSET ( 5, 0, .BEHIND. ) ;
#172 = APPROVAL_DATE_TIME ( #56, #52 ) ;
#173 = ORIENTED_EDGE ( 'NONE', *, *, #208, .T. ) ;
#174 = EDGE_CURVE ( 'NONE', #25, #45, #101, .T. ) ;
#175 = EDGE_LOOP ( 'NONE', ( #152, #112, #4, #30 ) ) ;
#176 = VERTEX_POINT ( 'NONE', #72 ) ;
#177 = AXIS2_PLACEMENT_3D ( 'NONE', #120, #95, #211 ) ;
#178 = AXIS2_PLACEMENT_3D ( 'NONE', #17, #165, #16 ) ;
#179 = CARTESIAN_POINT ( 'NONE',  ( 6.000000000000000888, 0.000000000000000000, 0.000000000000000000 ) ) ;
#180 = EDGE_CURVE ( 'NONE', #84, #24, #260, .T. ) ;
#181 = DIRECTION ( 'NONE',  ( -1.000000000000000000, -0.000000000000000000, -0.000000000000000000 ) ) ;
#182 = ORIENTED_EDGE ( 'NONE', *, *, #276, .T. ) ;
#183 = LOCAL_TIME ( 8, 29, 22.00000000000000000, #171 ) ;
#184 = CARTESIAN_POINT ( 'NONE',  ( -6.000000000000000888, 2.234980408443859187E-17, 0.1774999999999900824 ) ) ;
#185 = CARTESIAN_POINT ( 'NONE',  ( 6.000000000000000888, 0.000000000000000000, 0.000000000000000000 ) ) ;
#186 = DIRECTION ( 'NONE',  ( -1.000000000000000000, -0.000000000000000000, -0.000000000000000000 ) ) ;
#187 = CONICAL_SURFACE ( 'NONE', #243, 0.1775000000000053757, 0.7853981633974447263 ) ;
#188 = DIRECTION ( 'NONE',  ( 0.000000000000000000, 0.000000000000000000, 1.000000000000000000 ) ) ;
#189 = PERSON_AND_ORGANIZATION ( #39, #92 ) ;
#190 = ADVANCED_FACE ( 'NONE', ( #163 ), #19, .T. ) ;
#191 = APPROVAL_STATUS ( 'not_yet_approved' ) ;
#192 = EDGE_LOOP ( 'NONE', ( #9, #111, #114, #65 ) ) ;
#193 = APPROVAL_ROLE ( '' ) ;
#194 = ORIENTED_EDGE ( 'NONE', *, *, #180, .T. ) ;
#195 = CC_DESIGN_SECURITY_CLASSIFICATION ( #130, ( #40 ) ) ;
#196 = DIMENSIONAL_EXPONENTS ( 1.000000000000000000, 0.000000000000000000, 0.000000000000000000, 0.000000000000000000, 0.000000000000000000, 0.000000000000000000, 0.000000000000000000 ) ;
#197 = DIRECTION ( 'NONE',  ( -1.000000000000000000, 0.000000000000000000, 0.000000000000000000 ) ) ;
#198 = ORIENTED_EDGE ( 'NONE', *, *, #157, .T. ) ;
#199 = AXIS2_PLACEMENT_3D ( 'NONE', #7, #262, #61 ) ;
#200 = CC_DESIGN_DATE_AND_TIME_ASSIGNMENT ( #20, #272, ( #116 ) ) ;
#201 = DIRECTION ( 'NONE',  ( 0.000000000000000000, 0.000000000000000000, -1.000000000000000000 ) ) ;
#202 = FACE_OUTER_BOUND ( 'NONE', #133, .T. ) ;
#203 = AXIS2_PLACEMENT_3D ( 'NONE', #246, #164, #226 ) ;
#204 = AXIS2_PLACEMENT_3D ( 'NONE', #179, #136, #62 ) ;
#205 = CC_DESIGN_APPROVAL ( #8, ( #40 ) ) ;
#206 =( NAMED_UNIT ( * ) PLANE_ANGLE_UNIT ( ) SI_UNIT ( $, .RADIAN. ) );
#207 = CARTESIAN_POINT ( 'NONE',  ( -6.000000000000000888, 0.000000000000000000, 0.000000000000000000 ) ) ;
#208 = EDGE_CURVE ( 'NONE', #45, #25, #220, .T. ) ;
#209 = VECTOR ( 'NONE', #33, 39.37007874015748854 ) ;
#210 = DIRECTION ( 'NONE',  ( 1.000000000000000000, -0.000000000000000000, -0.000000000000000000 ) ) ;
#211 = DIRECTION ( 'NONE',  ( 0.000000000000000000, 0.000000000000000000, -1.000000000000000000 ) ) ;
#212 = CALENDAR_DATE ( 2023, 7, 6 ) ;
#213 = ADVANCED_FACE ( 'NONE', ( #137 ), #140, .T. ) ;
#214 = APPLICATION_PROTOCOL_DEFINITION ( 'international standard', 'config_control_design', 1994, #78 ) ;
#215 = ORIENTED_EDGE ( 'NONE', *, *, #51, .T. ) ;
#216 = DATE_AND_TIME ( #217, #90 ) ;
#217 = CALENDAR_DATE ( 2023, 7, 6 ) ;
#218 = LOCAL_TIME ( 8, 29, 22.00000000000000000, #233 ) ;
#219 = EDGE_LOOP ( 'NONE', ( #238, #103, #275, #254 ) ) ;
#220 = CIRCLE ( 'NONE', #203, 0.1774999999999900824 ) ;
#221 = ORIENTED_EDGE ( 'NONE', *, *, #71, .F. ) ;
#222 = FACE_OUTER_BOUND ( 'NONE', #115, .T. ) ;
#223 = AXIS2_PLACEMENT_3D ( 'NONE', #88, #224, #201 ) ;
#224 = DIRECTION ( 'NONE',  ( 1.000000000000000000, 0.000000000000000000, 0.000000000000000000 ) ) ;
#225 = CARTESIAN_POINT ( 'NONE',  ( 5.990000000000005542, 0.000000000000000000, 0.000000000000000000 ) ) ;
#226 = DIRECTION ( 'NONE',  ( 0.000000000000000000, 0.000000000000000000, -1.000000000000000000 ) ) ;
#227 = VECTOR ( 'NONE', #35, 39.37007874015748854 ) ;
#228 = DIRECTION ( 'NONE',  ( 0.000000000000000000, 0.000000000000000000, -1.000000000000000000 ) ) ;
#229 = ADVANCED_FACE ( 'NONE', ( #269 ), #168, .T. ) ;
#230 = LINE ( 'NONE', #123, #234 ) ;
#231 = LINE ( 'NONE', #245, #259 ) ;
#232 = DIRECTION ( 'NONE',  ( 0.000000000000000000, 0.000000000000000000, 1.000000000000000000 ) ) ;
#233 = COORDINATED_UNIVERSAL_TIME_OFFSET ( 5, 0, .BEHIND. ) ;
#234 = VECTOR ( 'NONE', #186, 39.37007874015748143 ) ;
#235 = APPROVAL_ROLE ( '' ) ;
#236 = PERSON_AND_ORGANIZATION_ROLE ( 'classification_officer' ) ;
#237 = DIRECTION ( 'NONE',  ( -1.000000000000000000, 0.000000000000000000, 0.000000000000000000 ) ) ;
#238 = ORIENTED_EDGE ( 'NONE', *, *, #174, .F. ) ;
#239 = CYLINDRICAL_SURFACE ( 'NONE', #204, 0.1875000000000000278 ) ;
#240 = ORIENTED_EDGE ( 'NONE', *, *, #150, .T. ) ;
#241 = DIRECTION ( 'NONE',  ( 0.000000000000000000, 0.000000000000000000, 1.000000000000000000 ) ) ;
#242 = CARTESIAN_POINT ( 'NONE',  ( 6.000000000000000888, 0.000000000000000000, 0.000000000000000000 ) ) ;
#243 = AXIS2_PLACEMENT_3D ( 'NONE', #26, #237, #156 ) ;
#244 = CC_DESIGN_PERSON_AND_ORGANIZATION_ASSIGNMENT ( #250, #106, ( #116 ) ) ;
#245 = CARTESIAN_POINT ( 'NONE',  ( 6.000000000000000888, 0.000000000000000000, 0.1775000000000053757 ) ) ;
#246 = CARTESIAN_POINT ( 'NONE',  ( -6.000000000000000888, 0.000000000000000000, 0.000000000000000000 ) ) ;
#247 = AXIS2_PLACEMENT_3D ( 'NONE', #268, #210, #15 ) ;
#248 = DIRECTION ( 'NONE',  ( 1.000000000000000000, -0.000000000000000000, -0.000000000000000000 ) ) ;
#249 = PERSON_AND_ORGANIZATION ( #39, #92 ) ;
#250 = PERSON_AND_ORGANIZATION ( #39, #92 ) ;
#251 = MANIFOLD_SOLID_BREP ( 'Chamfer1', #131 ) ;
#252 = CALENDAR_DATE ( 2023, 7, 6 ) ;
#253 = EDGE_CURVE ( 'NONE', #89, #176, #100, .T. ) ;
#254 = ORIENTED_EDGE ( 'NONE', *, *, #21, .F. ) ;
#255 = ADVANCED_BREP_SHAPE_REPRESENTATION ( 'NIL06SS-012.000-SL', ( #251, #2 ), #264 ) ;
#256 = ADVANCED_FACE ( 'NONE', ( #94 ), #50, .F. ) ;
#257 = AXIS2_PLACEMENT_3D ( 'NONE', #32, #53, #117 ) ;
#258 = CARTESIAN_POINT ( 'NONE',  ( -5.989999999999990443, 2.296212748401287726E-17, 0.1875000000000000278 ) ) ;
#259 = VECTOR ( 'NONE', #142, 39.37007874015748854 ) ;
#260 = CIRCLE ( 'NONE', #177, 0.1775000000000053757 ) ;
#261 = ORIENTED_EDGE ( 'NONE', *, *, #138, .T. ) ;
#262 = DIRECTION ( 'NONE',  ( 1.000000000000000000, -0.000000000000000000, -0.000000000000000000 ) ) ;
#263 = DIRECTION ( 'NONE',  ( -1.000000000000000000, 0.000000000000000000, 0.000000000000000000 ) ) ;
#264 =( GEOMETRIC_REPRESENTATION_CONTEXT ( 3 ) GLOBAL_UNCERTAINTY_ASSIGNED_CONTEXT ( ( #107 ) ) GLOBAL_UNIT_ASSIGNED_CONTEXT ( ( #68, #206, #49 ) ) REPRESENTATION_CONTEXT ( 'NONE', 'WORKASPACE' ) );
#265 = CARTESIAN_POINT ( 'NONE',  ( 6.000000000000000888, 2.234980408443952557E-17, -0.1775000000000053757 ) ) ;
#266 = DIRECTION ( 'NONE',  ( 1.000000000000000000, 0.000000000000000000, 0.000000000000000000 ) ) ;
#267 = DIRECTION ( 'NONE',  ( -1.000000000000000000, 0.000000000000000000, 0.000000000000000000 ) ) ;
#268 = CARTESIAN_POINT ( 'NONE',  ( -5.989999999999990443, 0.000000000000000000, 0.000000000000000000 ) ) ;
#269 = FACE_OUTER_BOUND ( 'NONE', #87, .T. ) ;
#270 = CIRCLE ( 'NONE', #60, 0.1875000000000000278 ) ;
#271 = CONICAL_SURFACE ( 'NONE', #199, 0.1875000000000000278, 0.7853981633974447263 ) ;
#272 = DATE_TIME_ROLE ( 'creation_date' ) ;
#273 = ORIENTED_EDGE ( 'NONE', *, *, #150, .F. ) ;
#274 = MECHANICAL_CONTEXT ( 'NONE', #128, 'mechanical' ) ;
#275 = ORIENTED_EDGE ( 'NONE', *, *, #253, .F. ) ;
#276 = EDGE_CURVE ( 'NONE', #176, #89, #270, .T. ) ;
#277 = CALENDAR_DATE ( 2023, 7, 6 ) ;
#278 = PRODUCT_RELATED_PRODUCT_CATEGORY ( 'detail', '', ( #148 ) ) ;
ENDSEC;
END-ISO-10303-21;
