ISO-10303-21;
HEADER;
FILE_DESCRIPTION (( 'STEP AP203' ),
    '1' );
FILE_NAME ('NIL06SS-006.000-SL.step',
    '2023-06-07T12:29:17',
    ( '' ),
    ( '' ),
    'SwSTEP 2.0',
    'SolidWorks 2021',
    '' );
FILE_SCHEMA (( 'CONFIG_CONTROL_DESIGN' ));
ENDSEC;

DATA;
#1 = APPROVAL ( #262, 'UNSPECIFIED' ) ;
#2 = PRODUCT_DEFINITION_SHAPE ( 'NONE', 'NONE',  #245 ) ;
#3 = DIRECTION ( 'NONE',  ( 0.000000000000000000, 0.000000000000000000, -1.000000000000000000 ) ) ;
#4 = COORDINATED_UNIVERSAL_TIME_OFFSET ( 5, 0, .BEHIND. ) ;
#5 = ORIENTED_EDGE ( 'NONE', *, *, #36, .F. ) ;
#6 = EDGE_CURVE ( 'NONE', #29, #225, #181, .T. ) ;
#7 = PERSON_AND_ORGANIZATION ( #83, #191 ) ;
#8 = ORIENTED_EDGE ( 'NONE', *, *, #104, .F. ) ;
#9 = CIRCLE ( 'NONE', #61, 0.1875000000000000278 ) ;
#10 = DATE_AND_TIME ( #111, #139 ) ;
#11 = EDGE_LOOP ( 'NONE', ( #33, #53, #94, #66 ) ) ;
#12 = CIRCLE ( 'NONE', #239, 0.1775000000000031830 ) ;
#13 = EDGE_LOOP ( 'NONE', ( #30, #138, #177, #8 ) ) ;
#14 = DIRECTION ( 'NONE',  ( 1.000000000000000000, 0.000000000000000000, 0.000000000000000000 ) ) ;
#15 = CARTESIAN_POINT ( 'NONE',  ( 2.990000000000003322, 0.000000000000000000, 0.000000000000000000 ) ) ;
#16 = ORIENTED_EDGE ( 'NONE', *, *, #159, .F. ) ;
#17 = DIRECTION ( 'NONE',  ( 0.000000000000000000, 0.000000000000000000, -1.000000000000000000 ) ) ;
#18 = DIRECTION ( 'NONE',  ( -1.000000000000000000, -0.000000000000000000, -0.000000000000000000 ) ) ;
#19 = LINE ( 'NONE', #162, #165 ) ;
#20 = LINE ( 'NONE', #255, #224 ) ;
#21 = CARTESIAN_POINT ( 'NONE',  ( 3.000000000000000444, 0.000000000000000000, 0.000000000000000000 ) ) ;
#22 = DIMENSIONAL_EXPONENTS ( 1.000000000000000000, 0.000000000000000000, 0.000000000000000000, 0.000000000000000000, 0.000000000000000000, 0.000000000000000000, 0.000000000000000000 ) ;
#23 = CC_DESIGN_APPROVAL ( #182, ( #43 ) ) ;
#24 = ADVANCED_FACE ( 'NONE', ( #135 ), #232, .T. ) ;
#25 = DATE_AND_TIME ( #92, #252 ) ;
#26 = AXIS2_PLACEMENT_3D ( 'NONE', #163, #210, #17 ) ;
#27 = COORDINATED_UNIVERSAL_TIME_OFFSET ( 5, 0, .BEHIND. ) ;
#28 = EDGE_CURVE ( 'NONE', #220, #263, #268, .T. ) ;
#29 = VERTEX_POINT ( 'NONE', #71 ) ;
#30 = ORIENTED_EDGE ( 'NONE', *, *, #254, .T. ) ;
#31 = CIRCLE ( 'NONE', #230, 0.1875000000000000278 ) ;
#32 = FACE_OUTER_BOUND ( 'NONE', #13, .T. ) ;
#33 = ORIENTED_EDGE ( 'NONE', *, *, #211, .F. ) ;
#34 = FACE_OUTER_BOUND ( 'NONE', #98, .T. ) ;
#35 = CARTESIAN_POINT ( 'NONE',  ( 3.000000000000000444, 0.000000000000000000, 0.1775000000000031830 ) ) ;
#36 = EDGE_CURVE ( 'NONE', #223, #263, #272, .T. ) ;
#37 = CARTESIAN_POINT ( 'NONE',  ( -3.000000000000000444, 2.234980408443892468E-17, 0.1774999999999955502 ) ) ;
#38 = CARTESIAN_POINT ( 'NONE',  ( -2.989999999999995772, 0.000000000000000000, 0.1875000000000000278 ) ) ;
#39 =( NAMED_UNIT ( * ) PLANE_ANGLE_UNIT ( ) SI_UNIT ( $, .RADIAN. ) );
#40 = AXIS2_PLACEMENT_3D ( 'NONE', #122, #185, #214 ) ;
#41 = CARTESIAN_POINT ( 'NONE',  ( 3.000000000000000444, 2.234980408443939306E-17, -0.1775000000000031830 ) ) ;
#42 = CARTESIAN_POINT ( 'NONE',  ( -3.000000000000000444, 0.000000000000000000, 0.000000000000000000 ) ) ;
#43 = PRODUCT_DEFINITION_FORMATION_WITH_SPECIFIED_SOURCE ( 'ANY', '', #136, .NOT_KNOWN. ) ;
#44 = PERSON_AND_ORGANIZATION ( #83, #191 ) ;
#45 = AXIS2_PLACEMENT_3D ( 'NONE', #274, #160, #157 ) ;
#46 = DATE_AND_TIME ( #147, #244 ) ;
#47 = CC_DESIGN_PERSON_AND_ORGANIZATION_ASSIGNMENT ( #7, #238, ( #176 ) ) ;
#48 = PERSON_AND_ORGANIZATION_ROLE ( 'creator' ) ;
#49 = ORIENTED_EDGE ( 'NONE', *, *, #222, .F. ) ;
#50 = COORDINATED_UNIVERSAL_TIME_OFFSET ( 5, 0, .BEHIND. ) ;
#51 = EDGE_LOOP ( 'NONE', ( #242, #130 ) ) ;
#52 = ADVANCED_FACE ( 'NONE', ( #72 ), #119, .T. ) ;
#53 = ORIENTED_EDGE ( 'NONE', *, *, #70, .F. ) ;
#54 = DIRECTION ( 'NONE',  ( 1.000000000000000000, -0.000000000000000000, -0.000000000000000000 ) ) ;
#55 = CC_DESIGN_DATE_AND_TIME_ASSIGNMENT ( #10, #109, ( #245 ) ) ;
#56 = DIRECTION ( 'NONE',  ( -1.000000000000000000, 0.000000000000000000, 0.000000000000000000 ) ) ;
#57 = CARTESIAN_POINT ( 'NONE',  ( 3.000000000000000444, 0.000000000000000000, 0.000000000000000000 ) ) ;
#58 = VECTOR ( 'NONE', #144, 39.37007874015748143 ) ;
#59 = MANIFOLD_SOLID_BREP ( 'Chamfer1', #259 ) ;
#60 = CARTESIAN_POINT ( 'NONE',  ( 3.000000000000000444, 0.000000000000000000, 0.1775000000000031830 ) ) ;
#61 = AXIS2_PLACEMENT_3D ( 'NONE', #80, #278, #3 ) ;
#62 = CARTESIAN_POINT ( 'NONE',  ( 3.000000000000000444, 2.296212748401286801E-17, -0.1875000000000000278 ) ) ;
#63 = CARTESIAN_POINT ( 'NONE',  ( 3.000000000000000444, 0.000000000000000000, 0.000000000000000000 ) ) ;
#64 = MECHANICAL_CONTEXT ( 'NONE', #226, 'mechanical' ) ;
#65 = APPROVAL_PERSON_ORGANIZATION ( #193, #182, #167 ) ;
#66 = ORIENTED_EDGE ( 'NONE', *, *, #275, .F. ) ;
#67 = DATE_TIME_ROLE ( 'classification_date' ) ;
#68 = EDGE_LOOP ( 'NONE', ( #16, #249, #114, #5 ) ) ;
#69 = CONICAL_SURFACE ( 'NONE', #248, 0.1875000000000000278, 0.7853981633974447263 ) ;
#70 = EDGE_CURVE ( 'NONE', #29, #265, #184, .T. ) ;
#71 = CARTESIAN_POINT ( 'NONE',  ( -3.000000000000000444, 0.000000000000000000, -0.1774999999999955502 ) ) ;
#72 = FACE_OUTER_BOUND ( 'NONE', #51, .T. ) ;
#73 =( GEOMETRIC_REPRESENTATION_CONTEXT ( 3 ) GLOBAL_UNCERTAINTY_ASSIGNED_CONTEXT ( ( #269 ) ) GLOBAL_UNIT_ASSIGNED_CONTEXT ( ( #141, #39, #188 ) ) REPRESENTATION_CONTEXT ( 'NONE', 'WORKASPACE' ) );
#74 = FACE_OUTER_BOUND ( 'NONE', #68, .T. ) ;
#75 = DIRECTION ( 'NONE',  ( -1.000000000000000000, 0.000000000000000000, 0.000000000000000000 ) ) ;
#76 = ORIENTED_EDGE ( 'NONE', *, *, #227, .F. ) ;
#77 = DESIGN_CONTEXT ( 'detailed design', #116, 'design' ) ;
#78 = AXIS2_PLACEMENT_3D ( 'NONE', #166, #105, #101 ) ;
#79 = CC_DESIGN_APPROVAL ( #1, ( #176 ) ) ;
#80 = CARTESIAN_POINT ( 'NONE',  ( 2.990000000000003322, 0.000000000000000000, 0.000000000000000000 ) ) ;
#81 = ADVANCED_FACE ( 'NONE', ( #202 ), #69, .T. ) ;
#82 = LENGTH_MEASURE_WITH_UNIT ( LENGTH_MEASURE( 0.02539999999999999897 ), #256 );
#83 = PERSON ( 'UNSPECIFIED', 'UNSPECIFIED', 'UNSPECIFIED', ('UNSPECIFIED'), ('UNSPECIFIED'), ('UNSPECIFIED') ) ;
#84 = AXIS2_PLACEMENT_3D ( 'NONE', #229, #153, #97 ) ;
#85 = DIRECTION ( 'NONE',  ( 1.000000000000000000, 0.000000000000000000, 0.000000000000000000 ) ) ;
#86 = CYLINDRICAL_SURFACE ( 'NONE', #156, 0.1875000000000000278 ) ;
#87 = PERSON_AND_ORGANIZATION_ROLE ( 'design_owner' ) ;
#88 = CALENDAR_DATE ( 2023, 7, 6 ) ;
#89 = ORIENTED_EDGE ( 'NONE', *, *, #159, .T. ) ;
#90 = COORDINATED_UNIVERSAL_TIME_OFFSET ( 5, 0, .BEHIND. ) ;
#91 = PERSON_AND_ORGANIZATION_ROLE ( 'design_supplier' ) ;
#92 = CALENDAR_DATE ( 2023, 7, 6 ) ;
#93 = CARTESIAN_POINT ( 'NONE',  ( -2.989999999999995772, 0.000000000000000000, 0.000000000000000000 ) ) ;
#94 = ORIENTED_EDGE ( 'NONE', *, *, #6, .T. ) ;
#95 = CARTESIAN_POINT ( 'NONE',  ( 3.000000000000000444, 0.000000000000000000, 0.1875000000000000278 ) ) ;
#96 = CC_DESIGN_PERSON_AND_ORGANIZATION_ASSIGNMENT ( #195, #91, ( #43 ) ) ;
#97 = DIRECTION ( 'NONE',  ( 0.000000000000000000, 0.000000000000000000, -1.000000000000000000 ) ) ;
#98 = EDGE_LOOP ( 'NONE', ( #49, #152, #133, #194 ) ) ;
#99 = CARTESIAN_POINT ( 'NONE',  ( -2.989999999999995772, 0.000000000000000000, 0.000000000000000000 ) ) ;
#100 = ADVANCED_FACE ( 'NONE', ( #32 ), #117, .T. ) ;
#101 = DIRECTION ( 'NONE',  ( 0.000000000000000000, 0.000000000000000000, 1.000000000000000000 ) ) ;
#102 = CARTESIAN_POINT ( 'NONE',  ( -2.989999999999995772, 2.296212748401286801E-17, -0.1875000000000000278 ) ) ;
#103 = FACE_OUTER_BOUND ( 'NONE', #148, .T. ) ;
#104 = EDGE_CURVE ( 'NONE', #263, #178, #206, .T. ) ;
#105 = DIRECTION ( 'NONE',  ( -1.000000000000000000, 0.000000000000000000, 0.000000000000000000 ) ) ;
#106 = CONICAL_SURFACE ( 'NONE', #146, 0.1775000000000031830, 0.7853981633974447263 ) ;
#107 = PERSON_AND_ORGANIZATION ( #83, #191 ) ;
#108 = ORIENTED_EDGE ( 'NONE', *, *, #257, .F. ) ;
#109 = DATE_TIME_ROLE ( 'creation_date' ) ;
#110 = CC_DESIGN_PERSON_AND_ORGANIZATION_ASSIGNMENT ( #44, #128, ( #43 ) ) ;
#111 = CALENDAR_DATE ( 2023, 7, 6 ) ;
#112 = CONICAL_SURFACE ( 'NONE', #78, 0.1775000000000031830, 0.7853981633974447263 ) ;
#113 = APPROVAL_DATE_TIME ( #197, #182 ) ;
#114 = ORIENTED_EDGE ( 'NONE', *, *, #28, .T. ) ;
#115 = DIRECTION ( 'NONE',  ( 0.000000000000000000, 0.000000000000000000, -1.000000000000000000 ) ) ;
#116 = APPLICATION_CONTEXT ( 'configuration controlled 3d designs of mechanical parts and assemblies' ) ;
#117 = CYLINDRICAL_SURFACE ( 'NONE', #235, 0.1875000000000000278 ) ;
#118 = DIRECTION ( 'NONE',  ( 0.000000000000000000, 0.000000000000000000, 1.000000000000000000 ) ) ;
#119 = PLANE ( 'NONE',  #168 ) ;
#120 = CIRCLE ( 'NONE', #277, 0.1774999999999955502 ) ;
#121 = EDGE_LOOP ( 'NONE', ( #179, #247 ) ) ;
#122 = CARTESIAN_POINT ( 'NONE',  ( 3.000000000000000444, 0.000000000000000000, 0.000000000000000000 ) ) ;
#123 = ADVANCED_FACE ( 'NONE', ( #74 ), #106, .T. ) ;
#124 = ADVANCED_FACE ( 'NONE', ( #34 ), #86, .T. ) ;
#125 = CARTESIAN_POINT ( 'NONE',  ( -3.000000000000000444, 0.000000000000000000, 0.000000000000000000 ) ) ;
#126 = DIRECTION ( 'NONE',  ( -1.000000000000000000, -0.000000000000000000, -0.000000000000000000 ) ) ;
#127 = APPROVAL_STATUS ( 'not_yet_approved' ) ;
#128 = PERSON_AND_ORGANIZATION_ROLE ( 'creator' ) ;
#129 = ADVANCED_FACE ( 'NONE', ( #213 ), #276, .F. ) ;
#130 = ORIENTED_EDGE ( 'NONE', *, *, #257, .T. ) ;
#131 = ADVANCED_BREP_SHAPE_REPRESENTATION ( 'NIL06SS-006.000-SL', ( #59, #161 ), #73 ) ;
#132 = SHAPE_DEFINITION_REPRESENTATION ( #2, #131 ) ;
#133 = ORIENTED_EDGE ( 'NONE', *, *, #104, .T. ) ;
#134 = DIRECTION ( 'NONE',  ( 0.000000000000000000, 0.000000000000000000, -1.000000000000000000 ) ) ;
#135 = FACE_OUTER_BOUND ( 'NONE', #11, .T. ) ;
#136 = PRODUCT ( 'NIL06SS-006.000-SL', 'NIL06SS-006.000-SL', '', ( #64 ) ) ;
#137 = CARTESIAN_POINT ( 'NONE',  ( 3.000000000000000444, 0.000000000000000000, 0.000000000000000000 ) ) ;
#138 = ORIENTED_EDGE ( 'NONE', *, *, #222, .T. ) ;
#139 = LOCAL_TIME ( 8, 29, 17.00000000000000000, #27 ) ;
#140 = VERTEX_POINT ( 'NONE', #41 ) ;
#141 =( CONVERSION_BASED_UNIT ( 'INCH', #82 ) LENGTH_UNIT ( ) NAMED_UNIT ( #22 ) );
#142 = DIRECTION ( 'NONE',  ( 1.000000000000000000, 0.000000000000000000, 0.000000000000000000 ) ) ;
#143 = LOCAL_TIME ( 8, 29, 17.00000000000000000, #240 ) ;
#144 = DIRECTION ( 'NONE',  ( -1.000000000000000000, -0.000000000000000000, -0.000000000000000000 ) ) ;
#145 = APPROVAL_STATUS ( 'not_yet_approved' ) ;
#146 = AXIS2_PLACEMENT_3D ( 'NONE', #137, #56, #228 ) ;
#147 = CALENDAR_DATE ( 2023, 7, 6 ) ;
#148 = EDGE_LOOP ( 'NONE', ( #108, #89, #196, #183 ) ) ;
#149 = ADVANCED_FACE ( 'NONE', ( #103 ), #112, .T. ) ;
#150 = APPROVAL_DATE_TIME ( #25, #155 ) ;
#151 = CC_DESIGN_APPROVAL ( #155, ( #245 ) ) ;
#152 = ORIENTED_EDGE ( 'NONE', *, *, #36, .T. ) ;
#153 = DIRECTION ( 'NONE',  ( -1.000000000000000000, -0.000000000000000000, -0.000000000000000000 ) ) ;
#154 = VECTOR ( 'NONE', #267, 39.37007874015748854 ) ;
#155 = APPROVAL ( #127, 'UNSPECIFIED' ) ;
#156 = AXIS2_PLACEMENT_3D ( 'NONE', #21, #18, #187 ) ;
#157 = DIRECTION ( 'NONE',  ( 0.000000000000000000, 0.000000000000000000, -1.000000000000000000 ) ) ;
#158 = DIRECTION ( 'NONE',  ( -1.000000000000000000, -0.000000000000000000, -0.000000000000000000 ) ) ;
#159 = EDGE_CURVE ( 'NONE', #140, #223, #20, .T. ) ;
#160 = DIRECTION ( 'NONE',  ( 1.000000000000000000, -0.000000000000000000, -0.000000000000000000 ) ) ;
#161 = AXIS2_PLACEMENT_3D ( 'NONE', #261, #173, #218 ) ;
#162 = CARTESIAN_POINT ( 'NONE',  ( -2.989999999999995772, 2.296212748401287726E-17, 0.1875000000000000278 ) ) ;
#163 = CARTESIAN_POINT ( 'NONE',  ( -2.989999999999995772, 0.000000000000000000, 0.000000000000000000 ) ) ;
#164 = DIRECTION ( 'NONE',  ( 1.000000000000000000, -0.000000000000000000, -0.000000000000000000 ) ) ;
#165 = VECTOR ( 'NONE', #189, 39.37007874015748854 ) ;
#166 = CARTESIAN_POINT ( 'NONE',  ( 3.000000000000000444, 0.000000000000000000, 0.000000000000000000 ) ) ;
#167 = APPROVAL_ROLE ( '' ) ;
#168 = AXIS2_PLACEMENT_3D ( 'NONE', #57, #14, #115 ) ;
#169 = APPROVAL_ROLE ( '' ) ;
#170 = CIRCLE ( 'NONE', #40, 0.1775000000000031830 ) ;
#171 = APPROVAL_ROLE ( '' ) ;
#172 = PRODUCT_RELATED_PRODUCT_CATEGORY ( 'detail', '', ( #136 ) ) ;
#173 = DIRECTION ( 'NONE',  ( 0.000000000000000000, 0.000000000000000000, 1.000000000000000000 ) ) ;
#174 = AXIS2_PLACEMENT_3D ( 'NONE', #15, #75, #251 ) ;
#175 = PERSON_AND_ORGANIZATION ( #83, #191 ) ;
#176 = SECURITY_CLASSIFICATION ( '', '', #217 ) ;
#177 = ORIENTED_EDGE ( 'NONE', *, *, #204, .T. ) ;
#178 = VERTEX_POINT ( 'NONE', #38 ) ;
#179 = ORIENTED_EDGE ( 'NONE', *, *, #70, .T. ) ;
#180 = CC_DESIGN_SECURITY_CLASSIFICATION ( #176, ( #43 ) ) ;
#181 = LINE ( 'NONE', #205, #216 ) ;
#182 = APPROVAL ( #145, 'UNSPECIFIED' ) ;
#183 = ORIENTED_EDGE ( 'NONE', *, *, #28, .F. ) ;
#184 = CIRCLE ( 'NONE', #84, 0.1774999999999955502 ) ;
#185 = DIRECTION ( 'NONE',  ( 1.000000000000000000, 0.000000000000000000, 0.000000000000000000 ) ) ;
#186 = AXIS2_PLACEMENT_3D ( 'NONE', #125, #85, #233 ) ;
#187 = DIRECTION ( 'NONE',  ( 0.000000000000000000, 0.000000000000000000, 1.000000000000000000 ) ) ;
#188 =( NAMED_UNIT ( * ) SI_UNIT ( $, .STERADIAN. ) SOLID_ANGLE_UNIT ( ) );
#189 = DIRECTION ( 'NONE',  ( 0.7071067811865499042, 8.659560562354900811E-17, 0.7071067811865450192 ) ) ;
#190 = DIRECTION ( 'NONE',  ( -0.7071067811865499042, 8.659560562354903276E-17, -0.7071067811865450192 ) ) ;
#191 = ORGANIZATION ( 'UNSPECIFIED', 'UNSPECIFIED', '' ) ;
#192 = CC_DESIGN_DATE_AND_TIME_ASSIGNMENT ( #266, #67, ( #176 ) ) ;
#193 = PERSON_AND_ORGANIZATION ( #83, #191 ) ;
#194 = ORIENTED_EDGE ( 'NONE', *, *, #275, .T. ) ;
#195 = PERSON_AND_ORGANIZATION ( #83, #191 ) ;
#196 = ORIENTED_EDGE ( 'NONE', *, *, #254, .F. ) ;
#197 = DATE_AND_TIME ( #243, #143 ) ;
#198 = VECTOR ( 'NONE', #270, 39.37007874015748143 ) ;
#199 = APPLICATION_PROTOCOL_DEFINITION ( 'international standard', 'config_control_design', 1994, #226 ) ;
#200 = ORIENTED_EDGE ( 'NONE', *, *, #204, .F. ) ;
#201 = PERSON_AND_ORGANIZATION ( #83, #191 ) ;
#202 = FACE_OUTER_BOUND ( 'NONE', #209, .T. ) ;
#203 = APPROVAL_PERSON_ORGANIZATION ( #175, #1, #171 ) ;
#204 = EDGE_CURVE ( 'NONE', #225, #178, #31, .T. ) ;
#205 = CARTESIAN_POINT ( 'NONE',  ( -2.989999999999995772, 0.000000000000000000, -0.1875000000000000278 ) ) ;
#206 = LINE ( 'NONE', #95, #198 ) ;
#207 = ORIENTED_EDGE ( 'NONE', *, *, #211, .T. ) ;
#208 = CC_DESIGN_PERSON_AND_ORGANIZATION_ASSIGNMENT ( #107, #48, ( #245 ) ) ;
#209 = EDGE_LOOP ( 'NONE', ( #76, #207, #200, #246 ) ) ;
#210 = DIRECTION ( 'NONE',  ( 1.000000000000000000, -0.000000000000000000, -0.000000000000000000 ) ) ;
#211 = EDGE_CURVE ( 'NONE', #265, #178, #19, .T. ) ;
#212 = CIRCLE ( 'NONE', #26, 0.1875000000000000278 ) ;
#213 = FACE_OUTER_BOUND ( 'NONE', #121, .T. ) ;
#214 = DIRECTION ( 'NONE',  ( 0.000000000000000000, 0.000000000000000000, -1.000000000000000000 ) ) ;
#215 = APPLICATION_PROTOCOL_DEFINITION ( 'international standard', 'config_control_design', 1994, #116 ) ;
#216 = VECTOR ( 'NONE', #250, 39.37007874015748854 ) ;
#217 = SECURITY_CLASSIFICATION_LEVEL ( 'unclassified' ) ;
#218 = DIRECTION ( 'NONE',  ( 1.000000000000000000, 0.000000000000000000, 0.000000000000000000 ) ) ;
#219 = PERSON_AND_ORGANIZATION ( #83, #191 ) ;
#220 = VERTEX_POINT ( 'NONE', #60 ) ;
#221 = LOCAL_TIME ( 8, 29, 17.00000000000000000, #90 ) ;
#222 = EDGE_CURVE ( 'NONE', #223, #225, #258, .T. ) ;
#223 = VERTEX_POINT ( 'NONE', #253 ) ;
#224 = VECTOR ( 'NONE', #190, 39.37007874015748854 ) ;
#225 = VERTEX_POINT ( 'NONE', #102 ) ;
#226 = APPLICATION_CONTEXT ( 'configuration controlled 3d designs of mechanical parts and assemblies' ) ;
#227 = EDGE_CURVE ( 'NONE', #265, #29, #120, .T. ) ;
#228 = DIRECTION ( 'NONE',  ( 0.000000000000000000, 0.000000000000000000, 1.000000000000000000 ) ) ;
#229 = CARTESIAN_POINT ( 'NONE',  ( -3.000000000000000444, 0.000000000000000000, 0.000000000000000000 ) ) ;
#230 = AXIS2_PLACEMENT_3D ( 'NONE', #99, #164, #237 ) ;
#231 = CARTESIAN_POINT ( 'NONE',  ( 2.990000000000003322, 0.000000000000000000, 0.1875000000000000278 ) ) ;
#232 = CONICAL_SURFACE ( 'NONE', #45, 0.1875000000000000278, 0.7853981633974447263 ) ;
#233 = DIRECTION ( 'NONE',  ( 0.000000000000000000, 0.000000000000000000, -1.000000000000000000 ) ) ;
#234 = EDGE_CURVE ( 'NONE', #220, #140, #170, .T. ) ;
#235 = AXIS2_PLACEMENT_3D ( 'NONE', #273, #158, #118 ) ;
#236 = DIRECTION ( 'NONE',  ( 0.000000000000000000, 0.000000000000000000, -1.000000000000000000 ) ) ;
#237 = DIRECTION ( 'NONE',  ( 0.000000000000000000, 0.000000000000000000, -1.000000000000000000 ) ) ;
#238 = PERSON_AND_ORGANIZATION_ROLE ( 'classification_officer' ) ;
#239 = AXIS2_PLACEMENT_3D ( 'NONE', #63, #142, #260 ) ;
#240 = COORDINATED_UNIVERSAL_TIME_OFFSET ( 5, 0, .BEHIND. ) ;
#241 = APPROVAL_DATE_TIME ( #46, #1 ) ;
#242 = ORIENTED_EDGE ( 'NONE', *, *, #234, .T. ) ;
#243 = CALENDAR_DATE ( 2023, 7, 6 ) ;
#244 = LOCAL_TIME ( 8, 29, 17.00000000000000000, #50 ) ;
#245 = PRODUCT_DEFINITION ( 'UNKNOWN', '', #43, #77 ) ;
#246 = ORIENTED_EDGE ( 'NONE', *, *, #6, .F. ) ;
#247 = ORIENTED_EDGE ( 'NONE', *, *, #227, .T. ) ;
#248 = AXIS2_PLACEMENT_3D ( 'NONE', #93, #54, #134 ) ;
#249 = ORIENTED_EDGE ( 'NONE', *, *, #234, .F. ) ;
#250 = DIRECTION ( 'NONE',  ( 0.7071067811865499042, 0.000000000000000000, -0.7071067811865450192 ) ) ;
#251 = DIRECTION ( 'NONE',  ( 0.000000000000000000, 0.000000000000000000, -1.000000000000000000 ) ) ;
#252 = LOCAL_TIME ( 8, 29, 17.00000000000000000, #4 ) ;
#253 = CARTESIAN_POINT ( 'NONE',  ( 2.990000000000003322, 2.296212748401286801E-17, -0.1875000000000000278 ) ) ;
#254 = EDGE_CURVE ( 'NONE', #263, #223, #9, .T. ) ;
#255 = CARTESIAN_POINT ( 'NONE',  ( 3.000000000000000444, 2.173748068486591195E-17, -0.1775000000000031830 ) ) ;
#256 =( LENGTH_UNIT ( ) NAMED_UNIT ( * ) SI_UNIT ( $, .METRE. ) );
#257 = EDGE_CURVE ( 'NONE', #140, #220, #12, .T. ) ;
#258 = LINE ( 'NONE', #62, #58 ) ;
#259 = CLOSED_SHELL ( 'NONE', ( #81, #149, #100, #124, #52, #129, #123, #24 ) ) ;
#260 = DIRECTION ( 'NONE',  ( 0.000000000000000000, 0.000000000000000000, -1.000000000000000000 ) ) ;
#261 = CARTESIAN_POINT ( 'NONE',  ( 0.000000000000000000, 0.000000000000000000, 0.000000000000000000 ) ) ;
#262 = APPROVAL_STATUS ( 'not_yet_approved' ) ;
#263 = VERTEX_POINT ( 'NONE', #231 ) ;
#264 = CC_DESIGN_PERSON_AND_ORGANIZATION_ASSIGNMENT ( #219, #87, ( #136 ) ) ;
#265 = VERTEX_POINT ( 'NONE', #37 ) ;
#266 = DATE_AND_TIME ( #88, #221 ) ;
#267 = DIRECTION ( 'NONE',  ( -0.7071067811865499042, 0.000000000000000000, 0.7071067811865450192 ) ) ;
#268 = LINE ( 'NONE', #35, #154 ) ;
#269 = UNCERTAINTY_MEASURE_WITH_UNIT (LENGTH_MEASURE( 1.000000000000000082E-05 ), #141, 'distance_accuracy_value', 'NONE');
#270 = DIRECTION ( 'NONE',  ( -1.000000000000000000, -0.000000000000000000, -0.000000000000000000 ) ) ;
#271 = APPROVAL_PERSON_ORGANIZATION ( #201, #155, #169 ) ;
#272 = CIRCLE ( 'NONE', #174, 0.1875000000000000278 ) ;
#273 = CARTESIAN_POINT ( 'NONE',  ( 3.000000000000000444, 0.000000000000000000, 0.000000000000000000 ) ) ;
#274 = CARTESIAN_POINT ( 'NONE',  ( -2.989999999999995772, 0.000000000000000000, 0.000000000000000000 ) ) ;
#275 = EDGE_CURVE ( 'NONE', #178, #225, #212, .T. ) ;
#276 = PLANE ( 'NONE',  #186 ) ;
#277 = AXIS2_PLACEMENT_3D ( 'NONE', #42, #126, #236 ) ;
#278 = DIRECTION ( 'NONE',  ( -1.000000000000000000, 0.000000000000000000, 0.000000000000000000 ) ) ;
ENDSEC;
END-ISO-10303-21;
