ISO-10303-21;
HEADER;
FILE_DESCRIPTION (( 'STEP AP203' ),
    '1' );
FILE_NAME ('NIL06-018.000-SL.step',
    '2023-06-07T12:29:12',
    ( '' ),
    ( '' ),
    'SwSTEP 2.0',
    'SolidWorks 2021',
    '' );
FILE_SCHEMA (( 'CONFIG_CONTROL_DESIGN' ));
ENDSEC;

DATA;
#1 = CC_DESIGN_DATE_AND_TIME_ASSIGNMENT ( #75, #90, ( #19 ) ) ;
#2 = ORIENTED_EDGE ( 'NONE', *, *, #71, .T. ) ;
#3 = DIRECTION ( 'NONE',  ( 0.000000000000000000, 0.000000000000000000, -1.000000000000000000 ) ) ;
#4 = DIRECTION ( 'NONE',  ( 0.000000000000000000, 0.000000000000000000, -1.000000000000000000 ) ) ;
#5 =( NAMED_UNIT ( * ) PLANE_ANGLE_UNIT ( ) SI_UNIT ( $, .RADIAN. ) );
#6 = PERSON_AND_ORGANIZATION_ROLE ( 'creator' ) ;
#7 = PLANE ( 'NONE',  #115 ) ;
#8 = PERSON_AND_ORGANIZATION ( #209, #163 ) ;
#9 = ORIENTED_EDGE ( 'NONE', *, *, #119, .T. ) ;
#10 = LOCAL_TIME ( 8, 29, 12.00000000000000000, #250 ) ;
#11 = DATE_TIME_ROLE ( 'classification_date' ) ;
#12 = FACE_OUTER_BOUND ( 'NONE', #22, .T. ) ;
#13 = APPLICATION_CONTEXT ( 'configuration controlled 3d designs of mechanical parts and assemblies' ) ;
#14 = AXIS2_PLACEMENT_3D ( 'NONE', #78, #76, #229 ) ;
#15 = DIRECTION ( 'NONE',  ( -0.7071067811865897612, 0.000000000000000000, 0.7071067811865052732 ) ) ;
#16 = DIRECTION ( 'NONE',  ( 1.000000000000000000, -0.000000000000000000, -0.000000000000000000 ) ) ;
#17 = CARTESIAN_POINT ( 'NONE',  ( 9.000000000000000000, 0.000000000000000000, 0.1875000000000000278 ) ) ;
#18 = AXIS2_PLACEMENT_3D ( 'NONE', #30, #218, #4 ) ;
#19 = PRODUCT_DEFINITION ( 'UNKNOWN', '', #104, #117 ) ;
#20 = ORIENTED_EDGE ( 'NONE', *, *, #252, .T. ) ;
#21 = ORIENTED_EDGE ( 'NONE', *, *, #29, .T. ) ;
#22 = EDGE_LOOP ( 'NONE', ( #180, #20 ) ) ;
#23 = FACE_OUTER_BOUND ( 'NONE', #221, .T. ) ;
#24 = EDGE_CURVE ( 'NONE', #166, #141, #113, .T. ) ;
#25 = DIRECTION ( 'NONE',  ( 1.000000000000000000, 0.000000000000000000, 0.000000000000000000 ) ) ;
#26 = PERSON_AND_ORGANIZATION ( #209, #163 ) ;
#27 = ORIENTED_EDGE ( 'NONE', *, *, #79, .T. ) ;
#28 = ORIENTED_EDGE ( 'NONE', *, *, #38, .F. ) ;
#29 = EDGE_CURVE ( 'NONE', #191, #145, #270, .T. ) ;
#30 = CARTESIAN_POINT ( 'NONE',  ( 9.000000000000000000, 0.000000000000000000, 0.000000000000000000 ) ) ;
#31 = CARTESIAN_POINT ( 'NONE',  ( 0.000000000000000000, 0.000000000000000000, 0.000000000000000000 ) ) ;
#32 = AXIS2_PLACEMENT_3D ( 'NONE', #242, #184, #52 ) ;
#33 = CC_DESIGN_PERSON_AND_ORGANIZATION_ASSIGNMENT ( #26, #223, ( #104 ) ) ;
#34 = CARTESIAN_POINT ( 'NONE',  ( 9.000000000000000000, 0.000000000000000000, 0.000000000000000000 ) ) ;
#35 = CC_DESIGN_DATE_AND_TIME_ASSIGNMENT ( #203, #11, ( #87 ) ) ;
#36 = CARTESIAN_POINT ( 'NONE',  ( 9.000000000000000000, 0.000000000000000000, 0.000000000000000000 ) ) ;
#37 = CIRCLE ( 'NONE', #261, 0.1775000000000010458 ) ;
#38 = EDGE_CURVE ( 'NONE', #191, #168, #238, .T. ) ;
#39 = AXIS2_PLACEMENT_3D ( 'NONE', #36, #101, #165 ) ;
#40 = ORIENTED_EDGE ( 'NONE', *, *, #207, .T. ) ;
#41 = CONICAL_SURFACE ( 'NONE', #155, 0.1775000000000010458, 0.7853981633973885490 ) ;
#42 = ADVANCED_FACE ( 'NONE', ( #127 ), #41, .T. ) ;
#43 = ORIENTED_EDGE ( 'NONE', *, *, #252, .F. ) ;
#44 = ORIENTED_EDGE ( 'NONE', *, *, #194, .T. ) ;
#45 = ORIENTED_EDGE ( 'NONE', *, *, #259, .T. ) ;
#46 = CC_DESIGN_PERSON_AND_ORGANIZATION_ASSIGNMENT ( #8, #6, ( #19 ) ) ;
#47 = CLOSED_SHELL ( 'NONE', ( #98, #42, #65, #161, #276, #103, #264, #272 ) ) ;
#48 = CARTESIAN_POINT ( 'NONE',  ( -8.989999999999996660, 0.000000000000000000, -0.1875000000000000278 ) ) ;
#49 = CALENDAR_DATE ( 2023, 7, 6 ) ;
#50 = CARTESIAN_POINT ( 'NONE',  ( 8.990000000000000213, 0.000000000000000000, 0.000000000000000000 ) ) ;
#51 = COORDINATED_UNIVERSAL_TIME_OFFSET ( 5, 0, .BEHIND. ) ;
#52 = DIRECTION ( 'NONE',  ( 0.000000000000000000, 0.000000000000000000, -1.000000000000000000 ) ) ;
#53 = PERSON_AND_ORGANIZATION ( #209, #163 ) ;
#54 = CARTESIAN_POINT ( 'NONE',  ( -8.989999999999996660, 2.296212748401287726E-17, -0.1875000000000000278 ) ) ;
#55 = CALENDAR_DATE ( 2023, 7, 6 ) ;
#56 = APPROVAL_DATE_TIME ( #116, #224 ) ;
#57 = FACE_OUTER_BOUND ( 'NONE', #256, .T. ) ;
#58 = DIRECTION ( 'NONE',  ( 0.000000000000000000, 0.000000000000000000, -1.000000000000000000 ) ) ;
#59 = ORIENTED_EDGE ( 'NONE', *, *, #169, .T. ) ;
#60 = CC_DESIGN_APPROVAL ( #224, ( #104 ) ) ;
#61 = AXIS2_PLACEMENT_3D ( 'NONE', #186, #255, #188 ) ;
#62 = VERTEX_POINT ( 'NONE', #215 ) ;
#63 = CIRCLE ( 'NONE', #171, 0.1875000000000000278 ) ;
#64 = CARTESIAN_POINT ( 'NONE',  ( -8.989999999999996660, 0.000000000000000000, 0.1875000000000000278 ) ) ;
#65 = ADVANCED_FACE ( 'NONE', ( #262 ), #114, .T. ) ;
#66 = EDGE_LOOP ( 'NONE', ( #172, #9 ) ) ;
#67 =( CONVERSION_BASED_UNIT ( 'INCH', #107 ) LENGTH_UNIT ( ) NAMED_UNIT ( #100 ) );
#68 = PRODUCT_DEFINITION_SHAPE ( 'NONE', 'NONE',  #19 ) ;
#69 = EDGE_LOOP ( 'NONE', ( #122, #27, #260, #102 ) ) ;
#70 = PERSON_AND_ORGANIZATION_ROLE ( 'classification_officer' ) ;
#71 = EDGE_CURVE ( 'NONE', #174, #62, #80, .T. ) ;
#72 = LINE ( 'NONE', #200, #125 ) ;
#73 = COORDINATED_UNIVERSAL_TIME_OFFSET ( 5, 0, .BEHIND. ) ;
#74 = DIRECTION ( 'NONE',  ( 0.000000000000000000, 0.000000000000000000, -1.000000000000000000 ) ) ;
#75 = DATE_AND_TIME ( #55, #230 ) ;
#76 = DIRECTION ( 'NONE',  ( 1.000000000000000000, -0.000000000000000000, -0.000000000000000000 ) ) ;
#77 = LOCAL_TIME ( 8, 29, 12.00000000000000000, #271 ) ;
#78 = CARTESIAN_POINT ( 'NONE',  ( -8.989999999999996660, 0.000000000000000000, 0.000000000000000000 ) ) ;
#79 = EDGE_CURVE ( 'NONE', #141, #62, #72, .T. ) ;
#80 = CIRCLE ( 'NONE', #95, 0.1875000000000000278 ) ;
#81 = APPROVAL_ROLE ( '' ) ;
#82 = DIRECTION ( 'NONE',  ( 1.000000000000000000, -0.000000000000000000, -0.000000000000000000 ) ) ;
#83 = APPROVAL_PERSON_ORGANIZATION ( #179, #224, #149 ) ;
#84 = FACE_OUTER_BOUND ( 'NONE', #66, .T. ) ;
#85 = APPROVAL ( #96, 'UNSPECIFIED' ) ;
#86 = ORIENTED_EDGE ( 'NONE', *, *, #178, .F. ) ;
#87 = SECURITY_CLASSIFICATION ( '', '', #158 ) ;
#88 = DIRECTION ( 'NONE',  ( -1.000000000000000000, -0.000000000000000000, -0.000000000000000000 ) ) ;
#89 = DIRECTION ( 'NONE',  ( 0.000000000000000000, 0.000000000000000000, 1.000000000000000000 ) ) ;
#90 = DATE_TIME_ROLE ( 'creation_date' ) ;
#91 = VERTEX_POINT ( 'NONE', #64 ) ;
#92 = ORIENTED_EDGE ( 'NONE', *, *, #194, .F. ) ;
#93 = CONICAL_SURFACE ( 'NONE', #253, 0.1875000000000000278, 0.7853981633974431720 ) ;
#94 = DIRECTION ( 'NONE',  ( -1.000000000000000000, 0.000000000000000000, 0.000000000000000000 ) ) ;
#95 = AXIS2_PLACEMENT_3D ( 'NONE', #205, #177, #266 ) ;
#96 = APPROVAL_STATUS ( 'not_yet_approved' ) ;
#97 = CARTESIAN_POINT ( 'NONE',  ( 8.990000000000000213, 0.000000000000000000, 0.1875000000000000278 ) ) ;
#98 = ADVANCED_FACE ( 'NONE', ( #241 ), #146, .T. ) ;
#99 = DIRECTION ( 'NONE',  ( 0.000000000000000000, 0.000000000000000000, 1.000000000000000000 ) ) ;
#100 = DIMENSIONAL_EXPONENTS ( 1.000000000000000000, 0.000000000000000000, 0.000000000000000000, 0.000000000000000000, 0.000000000000000000, 0.000000000000000000, 0.000000000000000000 ) ;
#101 = DIRECTION ( 'NONE',  ( 1.000000000000000000, 0.000000000000000000, 0.000000000000000000 ) ) ;
#102 = ORIENTED_EDGE ( 'NONE', *, *, #169, .F. ) ;
#103 = ADVANCED_FACE ( 'NONE', ( #12 ), #7, .F. ) ;
#104 = PRODUCT_DEFINITION_FORMATION_WITH_SPECIFIED_SOURCE ( 'ANY', '', #144, .NOT_KNOWN. ) ;
#105 = VECTOR ( 'NONE', #251, 39.37007874015748143 ) ;
#106 = DIRECTION ( 'NONE',  ( -1.000000000000000000, -0.000000000000000000, -0.000000000000000000 ) ) ;
#107 = LENGTH_MEASURE_WITH_UNIT ( LENGTH_MEASURE( 0.02539999999999999897 ), #121 );
#108 = PERSON_AND_ORGANIZATION_ROLE ( 'design_owner' ) ;
#109 = DIRECTION ( 'NONE',  ( 0.000000000000000000, 0.000000000000000000, 1.000000000000000000 ) ) ;
#110 = AXIS2_PLACEMENT_3D ( 'NONE', #50, #157, #244 ) ;
#111 = PERSON_AND_ORGANIZATION_ROLE ( 'design_supplier' ) ;
#112 = MECHANICAL_CONTEXT ( 'NONE', #249, 'mechanical' ) ;
#113 = CIRCLE ( 'NONE', #18, 0.1775000000000010458 ) ;
#114 = CYLINDRICAL_SURFACE ( 'NONE', #170, 0.1875000000000000278 ) ;
#115 = AXIS2_PLACEMENT_3D ( 'NONE', #130, #133, #74 ) ;
#116 = DATE_AND_TIME ( #49, #159 ) ;
#117 = DESIGN_CONTEXT ( 'detailed design', #13, 'design' ) ;
#118 = CARTESIAN_POINT ( 'NONE',  ( -9.000000000000000000, 2.234980408443899555E-17, 0.1774999999999966604 ) ) ;
#119 = EDGE_CURVE ( 'NONE', #141, #166, #37, .T. ) ;
#120 = DATE_AND_TIME ( #257, #10 ) ;
#121 =( LENGTH_UNIT ( ) NAMED_UNIT ( * ) SI_UNIT ( $, .METRE. ) );
#122 = ORIENTED_EDGE ( 'NONE', *, *, #119, .F. ) ;
#123 = ORIENTED_EDGE ( 'NONE', *, *, #212, .T. ) ;
#124 = EDGE_CURVE ( 'NONE', #62, #174, #232, .T. ) ;
#125 = VECTOR ( 'NONE', #154, 39.37007874015748143 ) ;
#126 = ORIENTED_EDGE ( 'NONE', *, *, #212, .F. ) ;
#127 = FACE_OUTER_BOUND ( 'NONE', #69, .T. ) ;
#128 = ORIENTED_EDGE ( 'NONE', *, *, #124, .T. ) ;
#129 = CALENDAR_DATE ( 2023, 7, 6 ) ;
#130 = CARTESIAN_POINT ( 'NONE',  ( -9.000000000000000000, 0.000000000000000000, 0.000000000000000000 ) ) ;
#131 = COORDINATED_UNIVERSAL_TIME_OFFSET ( 5, 0, .BEHIND. ) ;
#132 = CARTESIAN_POINT ( 'NONE',  ( -9.000000000000000000, 0.000000000000000000, 0.000000000000000000 ) ) ;
#133 = DIRECTION ( 'NONE',  ( 1.000000000000000000, 0.000000000000000000, 0.000000000000000000 ) ) ;
#134 = DIRECTION ( 'NONE',  ( 1.000000000000000000, 0.000000000000000000, 0.000000000000000000 ) ) ;
#135 = PERSON_AND_ORGANIZATION ( #209, #163 ) ;
#136 = LINE ( 'NONE', #225, #173 ) ;
#137 = UNCERTAINTY_MEASURE_WITH_UNIT (LENGTH_MEASURE( 1.000000000000000082E-05 ), #67, 'distance_accuracy_value', 'NONE');
#138 = PLANE ( 'NONE',  #39 ) ;
#139 = CC_DESIGN_PERSON_AND_ORGANIZATION_ASSIGNMENT ( #135, #111, ( #104 ) ) ;
#140 = APPROVAL_DATE_TIME ( #120, #181 ) ;
#141 = VERTEX_POINT ( 'NONE', #237 ) ;
#142 = APPROVAL_STATUS ( 'not_yet_approved' ) ;
#143 = ORIENTED_EDGE ( 'NONE', *, *, #79, .F. ) ;
#144 = PRODUCT ( 'NIL06-018.000-SL', 'NIL06-018.000-SL', '', ( #112 ) ) ;
#145 = VERTEX_POINT ( 'NONE', #54 ) ;
#146 = CONICAL_SURFACE ( 'NONE', #32, 0.1875000000000000278, 0.7853981633974431720 ) ;
#147 = DIRECTION ( 'NONE',  ( -1.000000000000000000, -0.000000000000000000, -0.000000000000000000 ) ) ;
#148 = ORIENTED_EDGE ( 'NONE', *, *, #259, .F. ) ;
#149 = APPROVAL_ROLE ( '' ) ;
#150 = CC_DESIGN_APPROVAL ( #181, ( #87 ) ) ;
#151 = CARTESIAN_POINT ( 'NONE',  ( 9.000000000000000000, 0.000000000000000000, 0.000000000000000000 ) ) ;
#152 = APPROVAL_DATE_TIME ( #197, #85 ) ;
#153 = MANIFOLD_SOLID_BREP ( 'Chamfer1', #47 ) ;
#154 = DIRECTION ( 'NONE',  ( -0.7071067811865897612, 8.659560562354415168E-17, -0.7071067811865052732 ) ) ;
#155 = AXIS2_PLACEMENT_3D ( 'NONE', #202, #94, #109 ) ;
#156 = APPLICATION_PROTOCOL_DEFINITION ( 'international standard', 'config_control_design', 1994, #249 ) ;
#157 = DIRECTION ( 'NONE',  ( -1.000000000000000000, 0.000000000000000000, 0.000000000000000000 ) ) ;
#158 = SECURITY_CLASSIFICATION_LEVEL ( 'unclassified' ) ;
#159 = LOCAL_TIME ( 8, 29, 12.00000000000000000, #51 ) ;
#160 = CARTESIAN_POINT ( 'NONE',  ( -9.000000000000000000, 0.000000000000000000, -0.1774999999999966604 ) ) ;
#161 = ADVANCED_FACE ( 'NONE', ( #23 ), #192, .T. ) ;
#162 = CARTESIAN_POINT ( 'NONE',  ( 9.000000000000000000, 2.296212748401287726E-17, -0.1875000000000000278 ) ) ;
#163 = ORGANIZATION ( 'UNSPECIFIED', 'UNSPECIFIED', '' ) ;
#164 = SHAPE_DEFINITION_REPRESENTATION ( #68, #190 ) ;
#165 = DIRECTION ( 'NONE',  ( 0.000000000000000000, 0.000000000000000000, -1.000000000000000000 ) ) ;
#166 = VERTEX_POINT ( 'NONE', #248 ) ;
#167 = CC_DESIGN_PERSON_AND_ORGANIZATION_ASSIGNMENT ( #201, #70, ( #87 ) ) ;
#168 = VERTEX_POINT ( 'NONE', #118 ) ;
#169 = EDGE_CURVE ( 'NONE', #166, #174, #136, .T. ) ;
#170 = AXIS2_PLACEMENT_3D ( 'NONE', #269, #88, #89 ) ;
#171 = AXIS2_PLACEMENT_3D ( 'NONE', #206, #16, #227 ) ;
#172 = ORIENTED_EDGE ( 'NONE', *, *, #24, .T. ) ;
#173 = VECTOR ( 'NONE', #15, 39.37007874015748143 ) ;
#174 = VERTEX_POINT ( 'NONE', #97 ) ;
#175 = VECTOR ( 'NONE', #236, 39.37007874015748143 ) ;
#176 = CARTESIAN_POINT ( 'NONE',  ( 9.000000000000000000, 0.000000000000000000, 0.000000000000000000 ) ) ;
#177 = DIRECTION ( 'NONE',  ( -1.000000000000000000, 0.000000000000000000, 0.000000000000000000 ) ) ;
#178 = EDGE_CURVE ( 'NONE', #91, #145, #245, .T. ) ;
#179 = PERSON_AND_ORGANIZATION ( #209, #163 ) ;
#180 = ORIENTED_EDGE ( 'NONE', *, *, #38, .T. ) ;
#181 = APPROVAL ( #142, 'UNSPECIFIED' ) ;
#182 = EDGE_LOOP ( 'NONE', ( #126, #28, #21, #86 ) ) ;
#183 = PERSON_AND_ORGANIZATION ( #209, #163 ) ;
#184 = DIRECTION ( 'NONE',  ( 1.000000000000000000, -0.000000000000000000, -0.000000000000000000 ) ) ;
#185 = CC_DESIGN_SECURITY_CLASSIFICATION ( #87, ( #104 ) ) ;
#186 = CARTESIAN_POINT ( 'NONE',  ( -9.000000000000000000, 0.000000000000000000, 0.000000000000000000 ) ) ;
#187 = CC_DESIGN_PERSON_AND_ORGANIZATION_ASSIGNMENT ( #247, #108, ( #144 ) ) ;
#188 = DIRECTION ( 'NONE',  ( 0.000000000000000000, 0.000000000000000000, -1.000000000000000000 ) ) ;
#189 = FACE_OUTER_BOUND ( 'NONE', #182, .T. ) ;
#190 = ADVANCED_BREP_SHAPE_REPRESENTATION ( 'NIL06-018.000-SL', ( #153, #216 ), #193 ) ;
#191 = VERTEX_POINT ( 'NONE', #160 ) ;
#192 = CYLINDRICAL_SURFACE ( 'NONE', #211, 0.1875000000000000278 ) ;
#193 =( GEOMETRIC_REPRESENTATION_CONTEXT ( 3 ) GLOBAL_UNCERTAINTY_ASSIGNED_CONTEXT ( ( #137 ) ) GLOBAL_UNIT_ASSIGNED_CONTEXT ( ( #67, #5, #196 ) ) REPRESENTATION_CONTEXT ( 'NONE', 'WORKASPACE' ) );
#194 = EDGE_CURVE ( 'NONE', #145, #91, #63, .T. ) ;
#195 = DIRECTION ( 'NONE',  ( 0.000000000000000000, 0.000000000000000000, 1.000000000000000000 ) ) ;
#196 =( NAMED_UNIT ( * ) SI_UNIT ( $, .STERADIAN. ) SOLID_ANGLE_UNIT ( ) );
#197 = DATE_AND_TIME ( #129, #77 ) ;
#198 = CONICAL_SURFACE ( 'NONE', #274, 0.1775000000000010458, 0.7853981633973885490 ) ;
#199 = VECTOR ( 'NONE', #246, 39.37007874015748143 ) ;
#200 = CARTESIAN_POINT ( 'NONE',  ( 9.000000000000000000, 2.173748068486564694E-17, -0.1775000000000010458 ) ) ;
#201 = PERSON_AND_ORGANIZATION ( #209, #163 ) ;
#202 = CARTESIAN_POINT ( 'NONE',  ( 9.000000000000000000, 0.000000000000000000, 0.000000000000000000 ) ) ;
#203 = DATE_AND_TIME ( #220, #267 ) ;
#204 = CC_DESIGN_APPROVAL ( #85, ( #19 ) ) ;
#205 = CARTESIAN_POINT ( 'NONE',  ( 8.990000000000000213, 0.000000000000000000, 0.000000000000000000 ) ) ;
#206 = CARTESIAN_POINT ( 'NONE',  ( -8.989999999999996660, 0.000000000000000000, 0.000000000000000000 ) ) ;
#207 = EDGE_CURVE ( 'NONE', #174, #91, #210, .T. ) ;
#208 = CARTESIAN_POINT ( 'NONE',  ( -8.989999999999996660, 2.296212748401287726E-17, 0.1875000000000000278 ) ) ;
#209 = PERSON ( 'UNSPECIFIED', 'UNSPECIFIED', 'UNSPECIFIED', ('UNSPECIFIED'), ('UNSPECIFIED'), ('UNSPECIFIED') ) ;
#210 = LINE ( 'NONE', #17, #199 ) ;
#211 = AXIS2_PLACEMENT_3D ( 'NONE', #176, #106, #195 ) ;
#212 = EDGE_CURVE ( 'NONE', #168, #91, #228, .T. ) ;
#213 = DIRECTION ( 'NONE',  ( 0.000000000000000000, 0.000000000000000000, 1.000000000000000000 ) ) ;
#214 = EDGE_LOOP ( 'NONE', ( #2, #45, #44, #231 ) ) ;
#215 = CARTESIAN_POINT ( 'NONE',  ( 8.990000000000000213, 2.296212748401287726E-17, -0.1875000000000000278 ) ) ;
#216 = AXIS2_PLACEMENT_3D ( 'NONE', #31, #213, #134 ) ;
#217 = PRODUCT_RELATED_PRODUCT_CATEGORY ( 'detail', '', ( #144 ) ) ;
#218 = DIRECTION ( 'NONE',  ( 1.000000000000000000, 0.000000000000000000, 0.000000000000000000 ) ) ;
#219 = EDGE_LOOP ( 'NONE', ( #43, #123, #92, #234 ) ) ;
#220 = CALENDAR_DATE ( 2023, 7, 6 ) ;
#221 = EDGE_LOOP ( 'NONE', ( #148, #128, #40, #233 ) ) ;
#222 = ORIENTED_EDGE ( 'NONE', *, *, #124, .F. ) ;
#223 = PERSON_AND_ORGANIZATION_ROLE ( 'creator' ) ;
#224 = APPROVAL ( #265, 'UNSPECIFIED' ) ;
#225 = CARTESIAN_POINT ( 'NONE',  ( 9.000000000000000000, 0.000000000000000000, 0.1775000000000010458 ) ) ;
#226 = CIRCLE ( 'NONE', #61, 0.1774999999999966604 ) ;
#227 = DIRECTION ( 'NONE',  ( 0.000000000000000000, 0.000000000000000000, -1.000000000000000000 ) ) ;
#228 = LINE ( 'NONE', #208, #268 ) ;
#229 = DIRECTION ( 'NONE',  ( 0.000000000000000000, 0.000000000000000000, -1.000000000000000000 ) ) ;
#230 = LOCAL_TIME ( 8, 29, 12.00000000000000000, #73 ) ;
#231 = ORIENTED_EDGE ( 'NONE', *, *, #207, .F. ) ;
#232 = CIRCLE ( 'NONE', #110, 0.1875000000000000278 ) ;
#233 = ORIENTED_EDGE ( 'NONE', *, *, #178, .T. ) ;
#234 = ORIENTED_EDGE ( 'NONE', *, *, #29, .F. ) ;
#235 = ORIENTED_EDGE ( 'NONE', *, *, #24, .F. ) ;
#236 = DIRECTION ( 'NONE',  ( 0.7071067811865511255, 0.000000000000000000, -0.7071067811865439090 ) ) ;
#237 = CARTESIAN_POINT ( 'NONE',  ( 9.000000000000000000, 2.234980408443926056E-17, -0.1775000000000010458 ) ) ;
#238 = CIRCLE ( 'NONE', #239, 0.1774999999999966604 ) ;
#239 = AXIS2_PLACEMENT_3D ( 'NONE', #132, #147, #3 ) ;
#240 = APPROVAL_ROLE ( '' ) ;
#241 = FACE_OUTER_BOUND ( 'NONE', #219, .T. ) ;
#242 = CARTESIAN_POINT ( 'NONE',  ( -8.989999999999996660, 0.000000000000000000, 0.000000000000000000 ) ) ;
#243 = APPLICATION_PROTOCOL_DEFINITION ( 'international standard', 'config_control_design', 1994, #13 ) ;
#244 = DIRECTION ( 'NONE',  ( 0.000000000000000000, 0.000000000000000000, -1.000000000000000000 ) ) ;
#245 = CIRCLE ( 'NONE', #14, 0.1875000000000000278 ) ;
#246 = DIRECTION ( 'NONE',  ( -1.000000000000000000, -0.000000000000000000, -0.000000000000000000 ) ) ;
#247 = PERSON_AND_ORGANIZATION ( #209, #163 ) ;
#248 = CARTESIAN_POINT ( 'NONE',  ( 9.000000000000000000, 0.000000000000000000, 0.1775000000000010458 ) ) ;
#249 = APPLICATION_CONTEXT ( 'configuration controlled 3d designs of mechanical parts and assemblies' ) ;
#250 = COORDINATED_UNIVERSAL_TIME_OFFSET ( 5, 0, .BEHIND. ) ;
#251 = DIRECTION ( 'NONE',  ( -1.000000000000000000, -0.000000000000000000, -0.000000000000000000 ) ) ;
#252 = EDGE_CURVE ( 'NONE', #168, #191, #226, .T. ) ;
#253 = AXIS2_PLACEMENT_3D ( 'NONE', #277, #82, #58 ) ;
#254 = DIRECTION ( 'NONE',  ( 0.7071067811865511255, 8.659560562354888485E-17, 0.7071067811865439090 ) ) ;
#255 = DIRECTION ( 'NONE',  ( -1.000000000000000000, -0.000000000000000000, -0.000000000000000000 ) ) ;
#256 = EDGE_LOOP ( 'NONE', ( #143, #235, #59, #222 ) ) ;
#257 = CALENDAR_DATE ( 2023, 7, 6 ) ;
#258 = APPROVAL_PERSON_ORGANIZATION ( #53, #85, #240 ) ;
#259 = EDGE_CURVE ( 'NONE', #62, #145, #275, .T. ) ;
#260 = ORIENTED_EDGE ( 'NONE', *, *, #71, .F. ) ;
#261 = AXIS2_PLACEMENT_3D ( 'NONE', #151, #25, #263 ) ;
#262 = FACE_OUTER_BOUND ( 'NONE', #214, .T. ) ;
#263 = DIRECTION ( 'NONE',  ( 0.000000000000000000, 0.000000000000000000, -1.000000000000000000 ) ) ;
#264 = ADVANCED_FACE ( 'NONE', ( #57 ), #198, .T. ) ;
#265 = APPROVAL_STATUS ( 'not_yet_approved' ) ;
#266 = DIRECTION ( 'NONE',  ( 0.000000000000000000, 0.000000000000000000, -1.000000000000000000 ) ) ;
#267 = LOCAL_TIME ( 8, 29, 12.00000000000000000, #131 ) ;
#268 = VECTOR ( 'NONE', #254, 39.37007874015748143 ) ;
#269 = CARTESIAN_POINT ( 'NONE',  ( 9.000000000000000000, 0.000000000000000000, 0.000000000000000000 ) ) ;
#270 = LINE ( 'NONE', #48, #175 ) ;
#271 = COORDINATED_UNIVERSAL_TIME_OFFSET ( 5, 0, .BEHIND. ) ;
#272 = ADVANCED_FACE ( 'NONE', ( #189 ), #93, .T. ) ;
#273 = APPROVAL_PERSON_ORGANIZATION ( #183, #181, #81 ) ;
#274 = AXIS2_PLACEMENT_3D ( 'NONE', #34, #278, #99 ) ;
#275 = LINE ( 'NONE', #162, #105 ) ;
#276 = ADVANCED_FACE ( 'NONE', ( #84 ), #138, .T. ) ;
#277 = CARTESIAN_POINT ( 'NONE',  ( -8.989999999999996660, 0.000000000000000000, 0.000000000000000000 ) ) ;
#278 = DIRECTION ( 'NONE',  ( -1.000000000000000000, 0.000000000000000000, 0.000000000000000000 ) ) ;
ENDSEC;
END-ISO-10303-21;
