ISO-10303-21;
HEADER;
FILE_DESCRIPTION (( 'STEP AP203' ),
    '1' );
FILE_NAME ('NIL06-012.000-SL.step',
    '2023-06-07T12:29:06',
    ( '' ),
    ( '' ),
    'SwSTEP 2.0',
    'SolidWorks 2021',
    '' );
FILE_SCHEMA (( 'CONFIG_CONTROL_DESIGN' ));
ENDSEC;

DATA;
#1 = ADVANCED_FACE ( 'NONE', ( #30 ), #75, .T. ) ;
#2 = ORIENTED_EDGE ( 'NONE', *, *, #73, .F. ) ;
#3 = ORIENTED_EDGE ( 'NONE', *, *, #125, .T. ) ;
#4 = CC_DESIGN_DATE_AND_TIME_ASSIGNMENT ( #5, #50, ( #79 ) ) ;
#5 = DATE_AND_TIME ( #225, #273 ) ;
#6 = VECTOR ( 'NONE', #270, 39.37007874015748854 ) ;
#7 = ORIENTED_EDGE ( 'NONE', *, *, #73, .T. ) ;
#8 = CARTESIAN_POINT ( 'NONE',  ( 6.000000000000000888, 0.000000000000000000, 0.000000000000000000 ) ) ;
#9 = DIRECTION ( 'NONE',  ( -1.000000000000000000, 0.000000000000000000, 0.000000000000000000 ) ) ;
#10 = AXIS2_PLACEMENT_3D ( 'NONE', #29, #246, #174 ) ;
#11 =( NAMED_UNIT ( * ) PLANE_ANGLE_UNIT ( ) SI_UNIT ( $, .RADIAN. ) );
#12 = ADVANCED_FACE ( 'NONE', ( #203 ), #89, .T. ) ;
#13 = LINE ( 'NONE', #232, #181 ) ;
#14 = LINE ( 'NONE', #163, #6 ) ;
#15 = ADVANCED_FACE ( 'NONE', ( #77 ), #18, .T. ) ;
#16 = APPROVAL_PERSON_ORGANIZATION ( #76, #257, #249 ) ;
#17 = DIRECTION ( 'NONE',  ( -1.000000000000000000, 0.000000000000000000, 0.000000000000000000 ) ) ;
#18 = CONICAL_SURFACE ( 'NONE', #209, 0.1875000000000000278, 0.7853981633974447263 ) ;
#19 = CIRCLE ( 'NONE', #117, 0.1774999999999900824 ) ;
#20 = ORIENTED_EDGE ( 'NONE', *, *, #172, .F. ) ;
#21 = EDGE_LOOP ( 'NONE', ( #142, #7 ) ) ;
#22 = EDGE_CURVE ( 'NONE', #177, #234, #60, .T. ) ;
#23 = DIRECTION ( 'NONE',  ( 0.000000000000000000, 0.000000000000000000, 1.000000000000000000 ) ) ;
#24 = ORIENTED_EDGE ( 'NONE', *, *, #111, .F. ) ;
#25 = PERSON_AND_ORGANIZATION ( #194, #85 ) ;
#26 = VECTOR ( 'NONE', #67, 39.37007874015748143 ) ;
#27 = ORIENTED_EDGE ( 'NONE', *, *, #68, .T. ) ;
#28 = MECHANICAL_CONTEXT ( 'NONE', #110, 'mechanical' ) ;
#29 = CARTESIAN_POINT ( 'NONE',  ( 6.000000000000000888, 0.000000000000000000, 0.000000000000000000 ) ) ;
#30 = FACE_OUTER_BOUND ( 'NONE', #59, .T. ) ;
#31 = CONICAL_SURFACE ( 'NONE', #90, 0.1875000000000000278, 0.7853981633974447263 ) ;
#32 = APPROVAL_ROLE ( '' ) ;
#33 = CARTESIAN_POINT ( 'NONE',  ( 6.000000000000000888, 0.000000000000000000, 0.000000000000000000 ) ) ;
#34 = APPROVAL_STATUS ( 'not_yet_approved' ) ;
#35 = DIRECTION ( 'NONE',  ( 0.000000000000000000, 0.000000000000000000, 1.000000000000000000 ) ) ;
#36 = DIMENSIONAL_EXPONENTS ( 1.000000000000000000, 0.000000000000000000, 0.000000000000000000, 0.000000000000000000, 0.000000000000000000, 0.000000000000000000, 0.000000000000000000 ) ;
#37 = SECURITY_CLASSIFICATION_LEVEL ( 'unclassified' ) ;
#38 = ORIENTED_EDGE ( 'NONE', *, *, #204, .T. ) ;
#39 = CC_DESIGN_PERSON_AND_ORGANIZATION_ASSIGNMENT ( #202, #277, ( #164 ) ) ;
#40 = ORIENTED_EDGE ( 'NONE', *, *, #278, .T. ) ;
#41 = LOCAL_TIME ( 8, 29, 6.000000000000000000, #256 ) ;
#42 = FACE_OUTER_BOUND ( 'NONE', #268, .T. ) ;
#43 = DIRECTION ( 'NONE',  ( -1.000000000000000000, -0.000000000000000000, -0.000000000000000000 ) ) ;
#44 = CC_DESIGN_APPROVAL ( #257, ( #79 ) ) ;
#45 = PERSON_AND_ORGANIZATION_ROLE ( 'creator' ) ;
#46 = CARTESIAN_POINT ( 'NONE',  ( -6.000000000000000888, 0.000000000000000000, -0.1774999999999900824 ) ) ;
#47 = CIRCLE ( 'NONE', #71, 0.1875000000000000278 ) ;
#48 = CARTESIAN_POINT ( 'NONE',  ( 6.000000000000000888, 0.000000000000000000, 0.000000000000000000 ) ) ;
#49 = CARTESIAN_POINT ( 'NONE',  ( -5.989999999999990443, 0.000000000000000000, 0.000000000000000000 ) ) ;
#50 = DATE_TIME_ROLE ( 'creation_date' ) ;
#51 = EDGE_CURVE ( 'NONE', #213, #171, #155, .T. ) ;
#52 = FACE_OUTER_BOUND ( 'NONE', #199, .T. ) ;
#53 =( GEOMETRIC_REPRESENTATION_CONTEXT ( 3 ) GLOBAL_UNCERTAINTY_ASSIGNED_CONTEXT ( ( #170 ) ) GLOBAL_UNIT_ASSIGNED_CONTEXT ( ( #147, #11, #182 ) ) REPRESENTATION_CONTEXT ( 'NONE', 'WORKASPACE' ) );
#54 = AXIS2_PLACEMENT_3D ( 'NONE', #95, #138, #276 ) ;
#55 = SHAPE_DEFINITION_REPRESENTATION ( #156, #242 ) ;
#56 = APPROVAL ( #34, 'UNSPECIFIED' ) ;
#57 = VERTEX_POINT ( 'NONE', #46 ) ;
#58 = APPROVAL_DATE_TIME ( #161, #56 ) ;
#59 = EDGE_LOOP ( 'NONE', ( #20, #216, #124, #236 ) ) ;
#60 = CIRCLE ( 'NONE', #10, 0.1775000000000053757 ) ;
#61 = ADVANCED_FACE ( 'NONE', ( #223 ), #263, .F. ) ;
#62 = AXIS2_PLACEMENT_3D ( 'NONE', #8, #92, #178 ) ;
#63 = VECTOR ( 'NONE', #224, 39.37007874015748854 ) ;
#64 = MANIFOLD_SOLID_BREP ( 'Chamfer1', #165 ) ;
#65 = CIRCLE ( 'NONE', #97, 0.1774999999999900824 ) ;
#66 = CONICAL_SURFACE ( 'NONE', #190, 0.1775000000000053757, 0.7853981633974447263 ) ;
#67 = DIRECTION ( 'NONE',  ( -1.000000000000000000, -0.000000000000000000, -0.000000000000000000 ) ) ;
#68 = EDGE_CURVE ( 'NONE', #57, #176, #88, .T. ) ;
#69 = APPROVAL_DATE_TIME ( #130, #140 ) ;
#70 = DIRECTION ( 'NONE',  ( -1.000000000000000000, -0.000000000000000000, -0.000000000000000000 ) ) ;
#71 = AXIS2_PLACEMENT_3D ( 'NONE', #81, #183, #162 ) ;
#72 = PERSON_AND_ORGANIZATION ( #194, #85 ) ;
#73 = EDGE_CURVE ( 'NONE', #213, #57, #19, .T. ) ;
#74 = ORIENTED_EDGE ( 'NONE', *, *, #231, .F. ) ;
#75 = CONICAL_SURFACE ( 'NONE', #115, 0.1775000000000053757, 0.7853981633974447263 ) ;
#76 = PERSON_AND_ORGANIZATION ( #194, #85 ) ;
#77 = FACE_OUTER_BOUND ( 'NONE', #105, .T. ) ;
#78 = FACE_OUTER_BOUND ( 'NONE', #145, .T. ) ;
#79 = PRODUCT_DEFINITION ( 'UNKNOWN', '', #164, #238 ) ;
#80 = DIRECTION ( 'NONE',  ( 0.000000000000000000, 0.000000000000000000, -1.000000000000000000 ) ) ;
#81 = CARTESIAN_POINT ( 'NONE',  ( -5.989999999999990443, 0.000000000000000000, 0.000000000000000000 ) ) ;
#82 = DIRECTION ( 'NONE',  ( -1.000000000000000000, -0.000000000000000000, -0.000000000000000000 ) ) ;
#83 = CC_DESIGN_PERSON_AND_ORGANIZATION_ASSIGNMENT ( #25, #45, ( #79 ) ) ;
#84 = DATE_AND_TIME ( #167, #150 ) ;
#85 = ORGANIZATION ( 'UNSPECIFIED', 'UNSPECIFIED', '' ) ;
#86 = AXIS2_PLACEMENT_3D ( 'NONE', #271, #17, #254 ) ;
#87 = VERTEX_POINT ( 'NONE', #133 ) ;
#88 = LINE ( 'NONE', #116, #193 ) ;
#89 = CYLINDRICAL_SURFACE ( 'NONE', #144, 0.1875000000000000278 ) ;
#90 = AXIS2_PLACEMENT_3D ( 'NONE', #230, #250, #80 ) ;
#91 = CC_DESIGN_PERSON_AND_ORGANIZATION_ASSIGNMENT ( #220, #112, ( #164 ) ) ;
#92 = DIRECTION ( 'NONE',  ( 1.000000000000000000, 0.000000000000000000, 0.000000000000000000 ) ) ;
#93 = DIRECTION ( 'NONE',  ( -1.000000000000000000, 0.000000000000000000, 0.000000000000000000 ) ) ;
#94 = DIRECTION ( 'NONE',  ( 1.000000000000000000, 0.000000000000000000, 0.000000000000000000 ) ) ;
#95 = CARTESIAN_POINT ( 'NONE',  ( 6.000000000000000888, 0.000000000000000000, 0.000000000000000000 ) ) ;
#96 = APPROVAL_PERSON_ORGANIZATION ( #72, #140, #132 ) ;
#97 = AXIS2_PLACEMENT_3D ( 'NONE', #211, #82, #189 ) ;
#98 = PERSON_AND_ORGANIZATION ( #194, #85 ) ;
#99 = CARTESIAN_POINT ( 'NONE',  ( 6.000000000000000888, 0.000000000000000000, 0.1775000000000053757 ) ) ;
#100 = CC_DESIGN_DATE_AND_TIME_ASSIGNMENT ( #84, #185, ( #168 ) ) ;
#101 = CARTESIAN_POINT ( 'NONE',  ( -5.989999999999990443, 2.296212748401286801E-17, -0.1875000000000000278 ) ) ;
#102 = PERSON_AND_ORGANIZATION_ROLE ( 'classification_officer' ) ;
#103 =( LENGTH_UNIT ( ) NAMED_UNIT ( * ) SI_UNIT ( $, .METRE. ) );
#104 = ORIENTED_EDGE ( 'NONE', *, *, #172, .T. ) ;
#105 = EDGE_LOOP ( 'NONE', ( #2, #149, #122, #198 ) ) ;
#106 = AXIS2_PLACEMENT_3D ( 'NONE', #218, #108, #35 ) ;
#107 = ORIENTED_EDGE ( 'NONE', *, *, #136, .T. ) ;
#108 = DIRECTION ( 'NONE',  ( -1.000000000000000000, -0.000000000000000000, -0.000000000000000000 ) ) ;
#109 = ORIENTED_EDGE ( 'NONE', *, *, #278, .F. ) ;
#110 = APPLICATION_CONTEXT ( 'configuration controlled 3d designs of mechanical parts and assemblies' ) ;
#111 = EDGE_CURVE ( 'NONE', #114, #87, #269, .T. ) ;
#112 = PERSON_AND_ORGANIZATION_ROLE ( 'creator' ) ;
#113 = DIRECTION ( 'NONE',  ( 1.000000000000000000, -0.000000000000000000, -0.000000000000000000 ) ) ;
#114 = VERTEX_POINT ( 'NONE', #180 ) ;
#115 = AXIS2_PLACEMENT_3D ( 'NONE', #200, #9, #201 ) ;
#116 = CARTESIAN_POINT ( 'NONE',  ( -5.989999999999990443, 0.000000000000000000, -0.1875000000000000278 ) ) ;
#117 = AXIS2_PLACEMENT_3D ( 'NONE', #153, #43, #129 ) ;
#118 = CALENDAR_DATE ( 2023, 7, 6 ) ;
#119 = PRODUCT ( 'NIL06-012.000-SL', 'NIL06-012.000-SL', '', ( #28 ) ) ;
#120 = DIRECTION ( 'NONE',  ( 0.000000000000000000, 0.000000000000000000, 1.000000000000000000 ) ) ;
#121 = APPLICATION_PROTOCOL_DEFINITION ( 'international standard', 'config_control_design', 1994, #110 ) ;
#122 = ORIENTED_EDGE ( 'NONE', *, *, #204, .F. ) ;
#123 = CC_DESIGN_APPROVAL ( #56, ( #168 ) ) ;
#124 = ORIENTED_EDGE ( 'NONE', *, *, #231, .T. ) ;
#125 = EDGE_CURVE ( 'NONE', #234, #177, #240, .T. ) ;
#126 = ORIENTED_EDGE ( 'NONE', *, *, #22, .T. ) ;
#127 = CYLINDRICAL_SURFACE ( 'NONE', #106, 0.1875000000000000278 ) ;
#128 = CIRCLE ( 'NONE', #86, 0.1875000000000000278 ) ;
#129 = DIRECTION ( 'NONE',  ( 0.000000000000000000, 0.000000000000000000, -1.000000000000000000 ) ) ;
#130 = DATE_AND_TIME ( #118, #259 ) ;
#131 = CARTESIAN_POINT ( 'NONE',  ( -6.000000000000000888, 0.000000000000000000, 0.000000000000000000 ) ) ;
#132 = APPROVAL_ROLE ( '' ) ;
#133 = CARTESIAN_POINT ( 'NONE',  ( 5.990000000000005542, 2.296212748401286801E-17, -0.1875000000000000278 ) ) ;
#134 = ORIENTED_EDGE ( 'NONE', *, *, #22, .F. ) ;
#135 = COORDINATED_UNIVERSAL_TIME_OFFSET ( 5, 0, .BEHIND. ) ;
#136 = EDGE_CURVE ( 'NONE', #87, #176, #266, .T. ) ;
#137 = APPROVAL_DATE_TIME ( #207, #257 ) ;
#138 = DIRECTION ( 'NONE',  ( 1.000000000000000000, 0.000000000000000000, 0.000000000000000000 ) ) ;
#139 = CARTESIAN_POINT ( 'NONE',  ( -5.989999999999990443, 0.000000000000000000, 0.1875000000000000278 ) ) ;
#140 = APPROVAL ( #152, 'UNSPECIFIED' ) ;
#141 = DIRECTION ( 'NONE',  ( 0.000000000000000000, 0.000000000000000000, -1.000000000000000000 ) ) ;
#142 = ORIENTED_EDGE ( 'NONE', *, *, #237, .T. ) ;
#143 = EDGE_LOOP ( 'NONE', ( #265, #217, #219, #40 ) ) ;
#144 = AXIS2_PLACEMENT_3D ( 'NONE', #48, #70, #23 ) ;
#145 = EDGE_LOOP ( 'NONE', ( #134, #104, #24, #74 ) ) ;
#146 = ADVANCED_FACE ( 'NONE', ( #42 ), #127, .T. ) ;
#147 =( CONVERSION_BASED_UNIT ( 'INCH', #261 ) LENGTH_UNIT ( ) NAMED_UNIT ( #36 ) );
#148 = DIRECTION ( 'NONE',  ( 0.000000000000000000, 0.000000000000000000, -1.000000000000000000 ) ) ;
#149 = ORIENTED_EDGE ( 'NONE', *, *, #51, .T. ) ;
#150 = LOCAL_TIME ( 8, 29, 6.000000000000000000, #192 ) ;
#151 = CARTESIAN_POINT ( 'NONE',  ( -5.989999999999990443, 0.000000000000000000, 0.000000000000000000 ) ) ;
#152 = APPROVAL_STATUS ( 'not_yet_approved' ) ;
#153 = CARTESIAN_POINT ( 'NONE',  ( -6.000000000000000888, 0.000000000000000000, 0.000000000000000000 ) ) ;
#154 = PERSON_AND_ORGANIZATION ( #194, #85 ) ;
#155 = LINE ( 'NONE', #241, #63 ) ;
#156 = PRODUCT_DEFINITION_SHAPE ( 'NONE', 'NONE',  #79 ) ;
#157 = DIRECTION ( 'NONE',  ( -0.7071067811865499042, 0.000000000000000000, 0.7071067811865450192 ) ) ;
#158 = LOCAL_TIME ( 8, 29, 6.000000000000000000, #243 ) ;
#159 = APPLICATION_PROTOCOL_DEFINITION ( 'international standard', 'config_control_design', 1994, #184 ) ;
#160 = CARTESIAN_POINT ( 'NONE',  ( 0.000000000000000000, 0.000000000000000000, 0.000000000000000000 ) ) ;
#161 = DATE_AND_TIME ( #255, #41 ) ;
#162 = DIRECTION ( 'NONE',  ( 0.000000000000000000, 0.000000000000000000, -1.000000000000000000 ) ) ;
#163 = CARTESIAN_POINT ( 'NONE',  ( 6.000000000000000888, 2.173748068486617696E-17, -0.1775000000000053757 ) ) ;
#164 = PRODUCT_DEFINITION_FORMATION_WITH_SPECIFIED_SOURCE ( 'ANY', '', #119, .NOT_KNOWN. ) ;
#165 = CLOSED_SHELL ( 'NONE', ( #15, #214, #146, #12, #196, #61, #1, #264 ) ) ;
#166 = AXIS2_PLACEMENT_3D ( 'NONE', #160, #258, #94 ) ;
#167 = CALENDAR_DATE ( 2023, 7, 6 ) ;
#168 = SECURITY_CLASSIFICATION ( '', '', #37 ) ;
#169 = AXIS2_PLACEMENT_3D ( 'NONE', #221, #205, #148 ) ;
#170 = UNCERTAINTY_MEASURE_WITH_UNIT (LENGTH_MEASURE( 1.000000000000000082E-05 ), #147, 'distance_accuracy_value', 'NONE');
#171 = VERTEX_POINT ( 'NONE', #139 ) ;
#172 = EDGE_CURVE ( 'NONE', #177, #87, #14, .T. ) ;
#173 = ORIENTED_EDGE ( 'NONE', *, *, #179, .F. ) ;
#174 = DIRECTION ( 'NONE',  ( 0.000000000000000000, 0.000000000000000000, -1.000000000000000000 ) ) ;
#175 = CC_DESIGN_PERSON_AND_ORGANIZATION_ASSIGNMENT ( #154, #267, ( #119 ) ) ;
#176 = VERTEX_POINT ( 'NONE', #101 ) ;
#177 = VERTEX_POINT ( 'NONE', #228 ) ;
#178 = DIRECTION ( 'NONE',  ( 0.000000000000000000, 0.000000000000000000, -1.000000000000000000 ) ) ;
#179 = EDGE_CURVE ( 'NONE', #114, #171, #13, .T. ) ;
#180 = CARTESIAN_POINT ( 'NONE',  ( 5.990000000000005542, 0.000000000000000000, 0.1875000000000000278 ) ) ;
#181 = VECTOR ( 'NONE', #227, 39.37007874015748143 ) ;
#182 =( NAMED_UNIT ( * ) SI_UNIT ( $, .STERADIAN. ) SOLID_ANGLE_UNIT ( ) );
#183 = DIRECTION ( 'NONE',  ( 1.000000000000000000, -0.000000000000000000, -0.000000000000000000 ) ) ;
#184 = APPLICATION_CONTEXT ( 'configuration controlled 3d designs of mechanical parts and assemblies' ) ;
#185 = DATE_TIME_ROLE ( 'classification_date' ) ;
#186 = CC_DESIGN_SECURITY_CLASSIFICATION ( #168, ( #164 ) ) ;
#187 = CARTESIAN_POINT ( 'NONE',  ( -6.000000000000000888, 2.234980408443859187E-17, 0.1774999999999900824 ) ) ;
#188 = AXIS2_PLACEMENT_3D ( 'NONE', #49, #252, #141 ) ;
#189 = DIRECTION ( 'NONE',  ( 0.000000000000000000, 0.000000000000000000, -1.000000000000000000 ) ) ;
#190 = AXIS2_PLACEMENT_3D ( 'NONE', #33, #93, #120 ) ;
#191 = PRODUCT_RELATED_PRODUCT_CATEGORY ( 'detail', '', ( #119 ) ) ;
#192 = COORDINATED_UNIVERSAL_TIME_OFFSET ( 5, 0, .BEHIND. ) ;
#193 = VECTOR ( 'NONE', #239, 39.37007874015748854 ) ;
#194 = PERSON ( 'UNSPECIFIED', 'UNSPECIFIED', 'UNSPECIFIED', ('UNSPECIFIED'), ('UNSPECIFIED'), ('UNSPECIFIED') ) ;
#195 = CIRCLE ( 'NONE', #188, 0.1875000000000000278 ) ;
#196 = ADVANCED_FACE ( 'NONE', ( #208 ), #272, .T. ) ;
#197 = CC_DESIGN_APPROVAL ( #140, ( #164 ) ) ;
#198 = ORIENTED_EDGE ( 'NONE', *, *, #68, .F. ) ;
#199 = EDGE_LOOP ( 'NONE', ( #235, #260, #27, #109 ) ) ;
#200 = CARTESIAN_POINT ( 'NONE',  ( 6.000000000000000888, 0.000000000000000000, 0.000000000000000000 ) ) ;
#201 = DIRECTION ( 'NONE',  ( 0.000000000000000000, 0.000000000000000000, 1.000000000000000000 ) ) ;
#202 = PERSON_AND_ORGANIZATION ( #194, #85 ) ;
#203 = FACE_OUTER_BOUND ( 'NONE', #143, .T. ) ;
#204 = EDGE_CURVE ( 'NONE', #176, #171, #47, .T. ) ;
#205 = DIRECTION ( 'NONE',  ( -1.000000000000000000, 0.000000000000000000, 0.000000000000000000 ) ) ;
#206 = DIRECTION ( 'NONE',  ( 0.000000000000000000, 0.000000000000000000, -1.000000000000000000 ) ) ;
#207 = DATE_AND_TIME ( #251, #158 ) ;
#208 = FACE_OUTER_BOUND ( 'NONE', #233, .T. ) ;
#209 = AXIS2_PLACEMENT_3D ( 'NONE', #151, #113, #245 ) ;
#210 = LINE ( 'NONE', #99, #275 ) ;
#211 = CARTESIAN_POINT ( 'NONE',  ( -6.000000000000000888, 0.000000000000000000, 0.000000000000000000 ) ) ;
#212 = CC_DESIGN_PERSON_AND_ORGANIZATION_ASSIGNMENT ( #98, #102, ( #168 ) ) ;
#213 = VERTEX_POINT ( 'NONE', #187 ) ;
#214 = ADVANCED_FACE ( 'NONE', ( #78 ), #66, .T. ) ;
#215 = ORIENTED_EDGE ( 'NONE', *, *, #111, .T. ) ;
#216 = ORIENTED_EDGE ( 'NONE', *, *, #125, .F. ) ;
#217 = ORIENTED_EDGE ( 'NONE', *, *, #244, .T. ) ;
#218 = CARTESIAN_POINT ( 'NONE',  ( 6.000000000000000888, 0.000000000000000000, 0.000000000000000000 ) ) ;
#219 = ORIENTED_EDGE ( 'NONE', *, *, #179, .T. ) ;
#220 = PERSON_AND_ORGANIZATION ( #194, #85 ) ;
#221 = CARTESIAN_POINT ( 'NONE',  ( 5.990000000000005542, 0.000000000000000000, 0.000000000000000000 ) ) ;
#222 = AXIS2_PLACEMENT_3D ( 'NONE', #131, #248, #206 ) ;
#223 = FACE_OUTER_BOUND ( 'NONE', #21, .T. ) ;
#224 = DIRECTION ( 'NONE',  ( 0.7071067811865499042, 8.659560562354903276E-17, 0.7071067811865450192 ) ) ;
#225 = CALENDAR_DATE ( 2023, 7, 6 ) ;
#226 = COORDINATED_UNIVERSAL_TIME_OFFSET ( 5, 0, .BEHIND. ) ;
#227 = DIRECTION ( 'NONE',  ( -1.000000000000000000, -0.000000000000000000, -0.000000000000000000 ) ) ;
#228 = CARTESIAN_POINT ( 'NONE',  ( 6.000000000000000888, 2.234980408443952557E-17, -0.1775000000000053757 ) ) ;
#229 = PERSON_AND_ORGANIZATION ( #194, #85 ) ;
#230 = CARTESIAN_POINT ( 'NONE',  ( -5.989999999999990443, 0.000000000000000000, 0.000000000000000000 ) ) ;
#231 = EDGE_CURVE ( 'NONE', #234, #114, #210, .T. ) ;
#232 = CARTESIAN_POINT ( 'NONE',  ( 6.000000000000000888, 0.000000000000000000, 0.1875000000000000278 ) ) ;
#233 = EDGE_LOOP ( 'NONE', ( #3, #126 ) ) ;
#234 = VERTEX_POINT ( 'NONE', #274 ) ;
#235 = ORIENTED_EDGE ( 'NONE', *, *, #51, .F. ) ;
#236 = ORIENTED_EDGE ( 'NONE', *, *, #244, .F. ) ;
#237 = EDGE_CURVE ( 'NONE', #57, #213, #65, .T. ) ;
#238 = DESIGN_CONTEXT ( 'detailed design', #184, 'design' ) ;
#239 = DIRECTION ( 'NONE',  ( 0.7071067811865499042, 0.000000000000000000, -0.7071067811865450192 ) ) ;
#240 = CIRCLE ( 'NONE', #62, 0.1775000000000053757 ) ;
#241 = CARTESIAN_POINT ( 'NONE',  ( -5.989999999999990443, 2.296212748401287726E-17, 0.1875000000000000278 ) ) ;
#242 = ADVANCED_BREP_SHAPE_REPRESENTATION ( 'NIL06-012.000-SL', ( #64, #166 ), #53 ) ;
#243 = COORDINATED_UNIVERSAL_TIME_OFFSET ( 5, 0, .BEHIND. ) ;
#244 = EDGE_CURVE ( 'NONE', #87, #114, #128, .T. ) ;
#245 = DIRECTION ( 'NONE',  ( 0.000000000000000000, 0.000000000000000000, -1.000000000000000000 ) ) ;
#246 = DIRECTION ( 'NONE',  ( 1.000000000000000000, 0.000000000000000000, 0.000000000000000000 ) ) ;
#247 = APPROVAL_STATUS ( 'not_yet_approved' ) ;
#248 = DIRECTION ( 'NONE',  ( 1.000000000000000000, 0.000000000000000000, 0.000000000000000000 ) ) ;
#249 = APPROVAL_ROLE ( '' ) ;
#250 = DIRECTION ( 'NONE',  ( 1.000000000000000000, -0.000000000000000000, -0.000000000000000000 ) ) ;
#251 = CALENDAR_DATE ( 2023, 7, 6 ) ;
#252 = DIRECTION ( 'NONE',  ( 1.000000000000000000, -0.000000000000000000, -0.000000000000000000 ) ) ;
#253 = APPROVAL_PERSON_ORGANIZATION ( #229, #56, #32 ) ;
#254 = DIRECTION ( 'NONE',  ( 0.000000000000000000, 0.000000000000000000, -1.000000000000000000 ) ) ;
#255 = CALENDAR_DATE ( 2023, 7, 6 ) ;
#256 = COORDINATED_UNIVERSAL_TIME_OFFSET ( 5, 0, .BEHIND. ) ;
#257 = APPROVAL ( #247, 'UNSPECIFIED' ) ;
#258 = DIRECTION ( 'NONE',  ( 0.000000000000000000, 0.000000000000000000, 1.000000000000000000 ) ) ;
#259 = LOCAL_TIME ( 8, 29, 6.000000000000000000, #226 ) ;
#260 = ORIENTED_EDGE ( 'NONE', *, *, #237, .F. ) ;
#261 = LENGTH_MEASURE_WITH_UNIT ( LENGTH_MEASURE( 0.02539999999999999897 ), #103 );
#262 = CARTESIAN_POINT ( 'NONE',  ( 6.000000000000000888, 2.296212748401286801E-17, -0.1875000000000000278 ) ) ;
#263 = PLANE ( 'NONE',  #222 ) ;
#264 = ADVANCED_FACE ( 'NONE', ( #52 ), #31, .T. ) ;
#265 = ORIENTED_EDGE ( 'NONE', *, *, #136, .F. ) ;
#266 = LINE ( 'NONE', #262, #26 ) ;
#267 = PERSON_AND_ORGANIZATION_ROLE ( 'design_owner' ) ;
#268 = EDGE_LOOP ( 'NONE', ( #215, #107, #38, #173 ) ) ;
#269 = CIRCLE ( 'NONE', #169, 0.1875000000000000278 ) ;
#270 = DIRECTION ( 'NONE',  ( -0.7071067811865499042, 8.659560562354900811E-17, -0.7071067811865450192 ) ) ;
#271 = CARTESIAN_POINT ( 'NONE',  ( 5.990000000000005542, 0.000000000000000000, 0.000000000000000000 ) ) ;
#272 = PLANE ( 'NONE',  #54 ) ;
#273 = LOCAL_TIME ( 8, 29, 6.000000000000000000, #135 ) ;
#274 = CARTESIAN_POINT ( 'NONE',  ( 6.000000000000000888, 0.000000000000000000, 0.1775000000000053757 ) ) ;
#275 = VECTOR ( 'NONE', #157, 39.37007874015748854 ) ;
#276 = DIRECTION ( 'NONE',  ( 0.000000000000000000, 0.000000000000000000, -1.000000000000000000 ) ) ;
#277 = PERSON_AND_ORGANIZATION_ROLE ( 'design_supplier' ) ;
#278 = EDGE_CURVE ( 'NONE', #171, #176, #195, .T. ) ;
ENDSEC;
END-ISO-10303-21;
