ISO-10303-21;
HEADER;
FILE_DESCRIPTION (( 'STEP AP203' ),
    '1' );
FILE_NAME ('NIL06-006.000-SL.step',
    '2023-06-07T12:29:01',
    ( '' ),
    ( '' ),
    'SwSTEP 2.0',
    'SolidWorks 2021',
    '' );
FILE_SCHEMA (( 'CONFIG_CONTROL_DESIGN' ));
ENDSEC;

DATA;
#1 = ORIENTED_EDGE ( 'NONE', *, *, #162, .F. ) ;
#2 = PERSON_AND_ORGANIZATION ( #208, #153 ) ;
#3 = VERTEX_POINT ( 'NONE', #134 ) ;
#4 = EDGE_LOOP ( 'NONE', ( #114, #102 ) ) ;
#5 =( NAMED_UNIT ( * ) SI_UNIT ( $, .STERADIAN. ) SOLID_ANGLE_UNIT ( ) );
#6 = CC_DESIGN_DATE_AND_TIME_ASSIGNMENT ( #122, #217, ( #131 ) ) ;
#7 = DIRECTION ( 'NONE',  ( 1.000000000000000000, 0.000000000000000000, 0.000000000000000000 ) ) ;
#8 = CARTESIAN_POINT ( 'NONE',  ( -2.989999999999995772, 0.000000000000000000, 0.000000000000000000 ) ) ;
#9 = DIRECTION ( 'NONE',  ( 0.7071067811865499042, 0.000000000000000000, -0.7071067811865450192 ) ) ;
#10 = DIRECTION ( 'NONE',  ( -1.000000000000000000, -0.000000000000000000, -0.000000000000000000 ) ) ;
#11 = LINE ( 'NONE', #152, #207 ) ;
#12 = SHAPE_DEFINITION_REPRESENTATION ( #186, #142 ) ;
#13 = APPROVAL ( #82, 'UNSPECIFIED' ) ;
#14 = AXIS2_PLACEMENT_3D ( 'NONE', #260, #265, #21 ) ;
#15 = FACE_OUTER_BOUND ( 'NONE', #4, .T. ) ;
#16 = AXIS2_PLACEMENT_3D ( 'NONE', #181, #200, #74 ) ;
#17 = APPROVAL ( #88, 'UNSPECIFIED' ) ;
#18 =( LENGTH_UNIT ( ) NAMED_UNIT ( * ) SI_UNIT ( $, .METRE. ) );
#19 = CARTESIAN_POINT ( 'NONE',  ( 2.990000000000003322, 0.000000000000000000, 0.1875000000000000278 ) ) ;
#20 = APPLICATION_PROTOCOL_DEFINITION ( 'international standard', 'config_control_design', 1994, #211 ) ;
#21 = DIRECTION ( 'NONE',  ( 1.000000000000000000, 0.000000000000000000, 0.000000000000000000 ) ) ;
#22 = EDGE_LOOP ( 'NONE', ( #194, #125, #107, #63 ) ) ;
#23 = PERSON_AND_ORGANIZATION ( #208, #153 ) ;
#24 = CONICAL_SURFACE ( 'NONE', #167, 0.1875000000000000278, 0.7853981633974447263 ) ;
#25 = ORIENTED_EDGE ( 'NONE', *, *, #169, .T. ) ;
#26 = PERSON_AND_ORGANIZATION ( #208, #153 ) ;
#27 = EDGE_CURVE ( 'NONE', #249, #216, #96, .T. ) ;
#28 = DIRECTION ( 'NONE',  ( 1.000000000000000000, 0.000000000000000000, 0.000000000000000000 ) ) ;
#29 = AXIS2_PLACEMENT_3D ( 'NONE', #40, #99, #39 ) ;
#30 = DIRECTION ( 'NONE',  ( 1.000000000000000000, -0.000000000000000000, -0.000000000000000000 ) ) ;
#31 = CARTESIAN_POINT ( 'NONE',  ( -3.000000000000000444, 2.234980408443892468E-17, 0.1774999999999955502 ) ) ;
#32 = CARTESIAN_POINT ( 'NONE',  ( 2.990000000000003322, 0.000000000000000000, 0.000000000000000000 ) ) ;
#33 = DIRECTION ( 'NONE',  ( -1.000000000000000000, -0.000000000000000000, -0.000000000000000000 ) ) ;
#34 = DIRECTION ( 'NONE',  ( -1.000000000000000000, -0.000000000000000000, -0.000000000000000000 ) ) ;
#35 = CC_DESIGN_SECURITY_CLASSIFICATION ( #95, ( #41 ) ) ;
#36 = CARTESIAN_POINT ( 'NONE',  ( -3.000000000000000444, 0.000000000000000000, -0.1774999999999955502 ) ) ;
#37 = CIRCLE ( 'NONE', #209, 0.1775000000000031830 ) ;
#38 = AXIS2_PLACEMENT_3D ( 'NONE', #130, #30, #113 ) ;
#39 = DIRECTION ( 'NONE',  ( 0.000000000000000000, 0.000000000000000000, -1.000000000000000000 ) ) ;
#40 = CARTESIAN_POINT ( 'NONE',  ( -3.000000000000000444, 0.000000000000000000, 0.000000000000000000 ) ) ;
#41 = PRODUCT_DEFINITION_FORMATION_WITH_SPECIFIED_SOURCE ( 'ANY', '', #180, .NOT_KNOWN. ) ;
#42 = CALENDAR_DATE ( 2023, 7, 6 ) ;
#43 = ORIENTED_EDGE ( 'NONE', *, *, #183, .T. ) ;
#44 = APPROVAL_DATE_TIME ( #237, #17 ) ;
#45 = VERTEX_POINT ( 'NONE', #222 ) ;
#46 = DESIGN_CONTEXT ( 'detailed design', #155, 'design' ) ;
#47 =( NAMED_UNIT ( * ) PLANE_ANGLE_UNIT ( ) SI_UNIT ( $, .RADIAN. ) );
#48 = CALENDAR_DATE ( 2023, 7, 6 ) ;
#49 = AXIS2_PLACEMENT_3D ( 'NONE', #78, #184, #274 ) ;
#50 = ORIENTED_EDGE ( 'NONE', *, *, #72, .F. ) ;
#51 = CYLINDRICAL_SURFACE ( 'NONE', #159, 0.1875000000000000278 ) ;
#52 = CIRCLE ( 'NONE', #206, 0.1774999999999955502 ) ;
#53 = DIRECTION ( 'NONE',  ( 0.000000000000000000, 0.000000000000000000, -1.000000000000000000 ) ) ;
#54 = DIRECTION ( 'NONE',  ( 0.7071067811865499042, 8.659560562354900811E-17, 0.7071067811865450192 ) ) ;
#55 = LINE ( 'NONE', #177, #229 ) ;
#56 = EDGE_CURVE ( 'NONE', #220, #45, #278, .T. ) ;
#57 = DIRECTION ( 'NONE',  ( -0.7071067811865499042, 8.659560562354903276E-17, -0.7071067811865450192 ) ) ;
#58 = AXIS2_PLACEMENT_3D ( 'NONE', #119, #204, #76 ) ;
#59 = PERSON_AND_ORGANIZATION_ROLE ( 'design_supplier' ) ;
#60 = ADVANCED_FACE ( 'NONE', ( #202 ), #133, .T. ) ;
#61 = ORIENTED_EDGE ( 'NONE', *, *, #83, .T. ) ;
#62 = APPROVAL_ROLE ( '' ) ;
#63 = ORIENTED_EDGE ( 'NONE', *, *, #69, .F. ) ;
#64 = COORDINATED_UNIVERSAL_TIME_OFFSET ( 5, 0, .BEHIND. ) ;
#65 = VECTOR ( 'NONE', #9, 39.37007874015748854 ) ;
#66 = ORIENTED_EDGE ( 'NONE', *, *, #69, .T. ) ;
#67 = CARTESIAN_POINT ( 'NONE',  ( 3.000000000000000444, 0.000000000000000000, 0.000000000000000000 ) ) ;
#68 = EDGE_LOOP ( 'NONE', ( #87, #43, #166, #123 ) ) ;
#69 = EDGE_CURVE ( 'NONE', #109, #220, #55, .T. ) ;
#70 = CARTESIAN_POINT ( 'NONE',  ( 3.000000000000000444, 0.000000000000000000, 0.000000000000000000 ) ) ;
#71 = CARTESIAN_POINT ( 'NONE',  ( 3.000000000000000444, 0.000000000000000000, 0.000000000000000000 ) ) ;
#72 = EDGE_CURVE ( 'NONE', #45, #216, #11, .T. ) ;
#73 = APPROVAL_ROLE ( '' ) ;
#74 = DIRECTION ( 'NONE',  ( 0.000000000000000000, 0.000000000000000000, -1.000000000000000000 ) ) ;
#75 = AXIS2_PLACEMENT_3D ( 'NONE', #199, #28, #93 ) ;
#76 = DIRECTION ( 'NONE',  ( 0.000000000000000000, 0.000000000000000000, -1.000000000000000000 ) ) ;
#77 = SECURITY_CLASSIFICATION_LEVEL ( 'unclassified' ) ;
#78 = CARTESIAN_POINT ( 'NONE',  ( -3.000000000000000444, 0.000000000000000000, 0.000000000000000000 ) ) ;
#79 = CALENDAR_DATE ( 2023, 7, 6 ) ;
#80 = CARTESIAN_POINT ( 'NONE',  ( 3.000000000000000444, 2.173748068486591195E-17, -0.1775000000000031830 ) ) ;
#81 = APPROVAL_PERSON_ORGANIZATION ( #201, #13, #73 ) ;
#82 = APPROVAL_STATUS ( 'not_yet_approved' ) ;
#83 = EDGE_CURVE ( 'NONE', #3, #216, #246, .T. ) ;
#84 = CC_DESIGN_PERSON_AND_ORGANIZATION_ASSIGNMENT ( #192, #275, ( #41 ) ) ;
#85 = ORIENTED_EDGE ( 'NONE', *, *, #101, .F. ) ;
#86 = DATE_AND_TIME ( #42, #128 ) ;
#87 = ORIENTED_EDGE ( 'NONE', *, *, #219, .F. ) ;
#88 = APPROVAL_STATUS ( 'not_yet_approved' ) ;
#89 = FACE_OUTER_BOUND ( 'NONE', #241, .T. ) ;
#90 = CC_DESIGN_PERSON_AND_ORGANIZATION_ASSIGNMENT ( #168, #257, ( #180 ) ) ;
#91 = DIRECTION ( 'NONE',  ( -1.000000000000000000, -0.000000000000000000, -0.000000000000000000 ) ) ;
#92 = PRODUCT_RELATED_PRODUCT_CATEGORY ( 'detail', '', ( #180 ) ) ;
#93 = DIRECTION ( 'NONE',  ( 0.000000000000000000, 0.000000000000000000, -1.000000000000000000 ) ) ;
#94 = DIRECTION ( 'NONE',  ( 0.000000000000000000, 0.000000000000000000, -1.000000000000000000 ) ) ;
#95 = SECURITY_CLASSIFICATION ( '', '', #77 ) ;
#96 = LINE ( 'NONE', #226, #65 ) ;
#97 = DATE_AND_TIME ( #79, #117 ) ;
#98 = PLANE ( 'NONE',  #49 ) ;
#99 = DIRECTION ( 'NONE',  ( -1.000000000000000000, -0.000000000000000000, -0.000000000000000000 ) ) ;
#100 = CARTESIAN_POINT ( 'NONE',  ( -3.000000000000000444, 0.000000000000000000, 0.000000000000000000 ) ) ;
#101 = EDGE_CURVE ( 'NONE', #220, #3, #225, .T. ) ;
#102 = ORIENTED_EDGE ( 'NONE', *, *, #219, .T. ) ;
#103 = APPROVAL_STATUS ( 'not_yet_approved' ) ;
#104 = VERTEX_POINT ( 'NONE', #31 ) ;
#105 = COORDINATED_UNIVERSAL_TIME_OFFSET ( 5, 0, .BEHIND. ) ;
#106 = AXIS2_PLACEMENT_3D ( 'NONE', #135, #10, #270 ) ;
#107 = ORIENTED_EDGE ( 'NONE', *, *, #56, .F. ) ;
#108 = PERSON_AND_ORGANIZATION ( #208, #153 ) ;
#109 = VERTEX_POINT ( 'NONE', #158 ) ;
#110 = CARTESIAN_POINT ( 'NONE',  ( 3.000000000000000444, 0.000000000000000000, 0.000000000000000000 ) ) ;
#111 = CC_DESIGN_DATE_AND_TIME_ASSIGNMENT ( #86, #213, ( #95 ) ) ;
#112 = DIRECTION ( 'NONE',  ( 0.000000000000000000, 0.000000000000000000, -1.000000000000000000 ) ) ;
#113 = DIRECTION ( 'NONE',  ( 0.000000000000000000, 0.000000000000000000, -1.000000000000000000 ) ) ;
#114 = ORIENTED_EDGE ( 'NONE', *, *, #224, .T. ) ;
#115 = FACE_OUTER_BOUND ( 'NONE', #68, .T. ) ;
#116 = LOCAL_TIME ( 8, 29, 1.000000000000000000, #105 ) ;
#117 = LOCAL_TIME ( 8, 29, 1.000000000000000000, #235 ) ;
#118 = DIRECTION ( 'NONE',  ( 0.000000000000000000, 0.000000000000000000, -1.000000000000000000 ) ) ;
#119 = CARTESIAN_POINT ( 'NONE',  ( 3.000000000000000444, 0.000000000000000000, 0.000000000000000000 ) ) ;
#120 = APPROVAL_ROLE ( '' ) ;
#121 = ORIENTED_EDGE ( 'NONE', *, *, #162, .T. ) ;
#122 = DATE_AND_TIME ( #48, #188 ) ;
#123 = ORIENTED_EDGE ( 'NONE', *, *, #27, .F. ) ;
#124 = DATE_AND_TIME ( #191, #268 ) ;
#125 = ORIENTED_EDGE ( 'NONE', *, *, #234, .T. ) ;
#126 = UNCERTAINTY_MEASURE_WITH_UNIT (LENGTH_MEASURE( 1.000000000000000082E-05 ), #173, 'distance_accuracy_value', 'NONE');
#127 = ORIENTED_EDGE ( 'NONE', *, *, #27, .T. ) ;
#128 = LOCAL_TIME ( 8, 29, 1.000000000000000000, #140 ) ;
#129 = EDGE_CURVE ( 'NONE', #216, #3, #223, .T. ) ;
#130 = CARTESIAN_POINT ( 'NONE',  ( -2.989999999999995772, 0.000000000000000000, 0.000000000000000000 ) ) ;
#131 = PRODUCT_DEFINITION ( 'UNKNOWN', '', #41, #46 ) ;
#132 = DIRECTION ( 'NONE',  ( 0.000000000000000000, 0.000000000000000000, 1.000000000000000000 ) ) ;
#133 = CONICAL_SURFACE ( 'NONE', #16, 0.1875000000000000278, 0.7853981633974447263 ) ;
#134 = CARTESIAN_POINT ( 'NONE',  ( -2.989999999999995772, 0.000000000000000000, 0.1875000000000000278 ) ) ;
#135 = CARTESIAN_POINT ( 'NONE',  ( 3.000000000000000444, 0.000000000000000000, 0.000000000000000000 ) ) ;
#136 = CYLINDRICAL_SURFACE ( 'NONE', #106, 0.1875000000000000278 ) ;
#137 = CARTESIAN_POINT ( 'NONE',  ( 2.990000000000003322, 0.000000000000000000, 0.000000000000000000 ) ) ;
#138 = DIRECTION ( 'NONE',  ( 0.000000000000000000, 0.000000000000000000, -1.000000000000000000 ) ) ;
#139 = APPROVAL_PERSON_ORGANIZATION ( #23, #233, #120 ) ;
#140 = COORDINATED_UNIVERSAL_TIME_OFFSET ( 5, 0, .BEHIND. ) ;
#141 = ORIENTED_EDGE ( 'NONE', *, *, #227, .F. ) ;
#142 = ADVANCED_BREP_SHAPE_REPRESENTATION ( 'NIL06-006.000-SL', ( #148, #14 ), #244 ) ;
#143 = ORIENTED_EDGE ( 'NONE', *, *, #234, .F. ) ;
#144 = ADVANCED_FACE ( 'NONE', ( #115 ), #24, .T. ) ;
#145 = PERSON_AND_ORGANIZATION_ROLE ( 'creator' ) ;
#146 = ORIENTED_EDGE ( 'NONE', *, *, #227, .T. ) ;
#147 = ORIENTED_EDGE ( 'NONE', *, *, #56, .T. ) ;
#148 = MANIFOLD_SOLID_BREP ( 'Chamfer1', #163 ) ;
#149 = EDGE_LOOP ( 'NONE', ( #267, #189, #127, #240 ) ) ;
#150 = CC_DESIGN_APPROVAL ( #13, ( #95 ) ) ;
#151 = DIRECTION ( 'NONE',  ( -1.000000000000000000, 0.000000000000000000, 0.000000000000000000 ) ) ;
#152 = CARTESIAN_POINT ( 'NONE',  ( 3.000000000000000444, 2.296212748401286801E-17, -0.1875000000000000278 ) ) ;
#153 = ORGANIZATION ( 'UNSPECIFIED', 'UNSPECIFIED', '' ) ;
#154 = LINE ( 'NONE', #247, #272 ) ;
#155 = APPLICATION_CONTEXT ( 'configuration controlled 3d designs of mechanical parts and assemblies' ) ;
#156 = DIRECTION ( 'NONE',  ( -1.000000000000000000, -0.000000000000000000, -0.000000000000000000 ) ) ;
#157 = LENGTH_MEASURE_WITH_UNIT ( LENGTH_MEASURE( 0.02539999999999999897 ), #18 );
#158 = CARTESIAN_POINT ( 'NONE',  ( 3.000000000000000444, 0.000000000000000000, 0.1775000000000031830 ) ) ;
#159 = AXIS2_PLACEMENT_3D ( 'NONE', #71, #33, #185 ) ;
#160 = APPROVAL_PERSON_ORGANIZATION ( #26, #17, #62 ) ;
#161 = PERSON_AND_ORGANIZATION ( #208, #153 ) ;
#162 = EDGE_CURVE ( 'NONE', #109, #261, #174, .T. ) ;
#163 = CLOSED_SHELL ( 'NONE', ( #144, #198, #203, #193, #254, #273, #182, #60 ) ) ;
#164 = CC_DESIGN_APPROVAL ( #233, ( #41 ) ) ;
#165 = FACE_OUTER_BOUND ( 'NONE', #170, .T. ) ;
#166 = ORIENTED_EDGE ( 'NONE', *, *, #129, .F. ) ;
#167 = AXIS2_PLACEMENT_3D ( 'NONE', #8, #221, #94 ) ;
#168 = PERSON_AND_ORGANIZATION ( #208, #153 ) ;
#169 = EDGE_CURVE ( 'NONE', #261, #109, #37, .T. ) ;
#170 = EDGE_LOOP ( 'NONE', ( #121, #25 ) ) ;
#171 = CALENDAR_DATE ( 2023, 7, 6 ) ;
#172 = ORIENTED_EDGE ( 'NONE', *, *, #72, .T. ) ;
#173 =( CONVERSION_BASED_UNIT ( 'INCH', #157 ) LENGTH_UNIT ( ) NAMED_UNIT ( #258 ) );
#174 = CIRCLE ( 'NONE', #75, 0.1775000000000031830 ) ;
#175 = AXIS2_PLACEMENT_3D ( 'NONE', #264, #245, #53 ) ;
#176 = FACE_OUTER_BOUND ( 'NONE', #252, .T. ) ;
#177 = CARTESIAN_POINT ( 'NONE',  ( 3.000000000000000444, 0.000000000000000000, 0.1775000000000031830 ) ) ;
#178 = DIRECTION ( 'NONE',  ( 0.000000000000000000, 0.000000000000000000, -1.000000000000000000 ) ) ;
#179 = DIRECTION ( 'NONE',  ( -1.000000000000000000, 0.000000000000000000, 0.000000000000000000 ) ) ;
#180 = PRODUCT ( 'NIL06-006.000-SL', 'NIL06-006.000-SL', '', ( #215 ) ) ;
#181 = CARTESIAN_POINT ( 'NONE',  ( -2.989999999999995772, 0.000000000000000000, 0.000000000000000000 ) ) ;
#182 = ADVANCED_FACE ( 'NONE', ( #89 ), #250, .T. ) ;
#183 = EDGE_CURVE ( 'NONE', #104, #3, #154, .T. ) ;
#184 = DIRECTION ( 'NONE',  ( 1.000000000000000000, 0.000000000000000000, 0.000000000000000000 ) ) ;
#185 = DIRECTION ( 'NONE',  ( 0.000000000000000000, 0.000000000000000000, 1.000000000000000000 ) ) ;
#186 = PRODUCT_DEFINITION_SHAPE ( 'NONE', 'NONE',  #131 ) ;
#187 = AXIS2_PLACEMENT_3D ( 'NONE', #32, #271, #112 ) ;
#188 = LOCAL_TIME ( 8, 29, 1.000000000000000000, #190 ) ;
#189 = ORIENTED_EDGE ( 'NONE', *, *, #224, .F. ) ;
#190 = COORDINATED_UNIVERSAL_TIME_OFFSET ( 5, 0, .BEHIND. ) ;
#191 = CALENDAR_DATE ( 2023, 7, 6 ) ;
#192 = PERSON_AND_ORGANIZATION ( #208, #153 ) ;
#193 = ADVANCED_FACE ( 'NONE', ( #176 ), #136, .T. ) ;
#194 = ORIENTED_EDGE ( 'NONE', *, *, #169, .F. ) ;
#195 = CIRCLE ( 'NONE', #29, 0.1774999999999955502 ) ;
#196 = CARTESIAN_POINT ( 'NONE',  ( 3.000000000000000444, 0.000000000000000000, 0.1875000000000000278 ) ) ;
#197 = DIRECTION ( 'NONE',  ( -0.7071067811865499042, 0.000000000000000000, 0.7071067811865450192 ) ) ;
#198 = ADVANCED_FACE ( 'NONE', ( #263 ), #210, .T. ) ;
#199 = CARTESIAN_POINT ( 'NONE',  ( 3.000000000000000444, 0.000000000000000000, 0.000000000000000000 ) ) ;
#200 = DIRECTION ( 'NONE',  ( 1.000000000000000000, -0.000000000000000000, -0.000000000000000000 ) ) ;
#201 = PERSON_AND_ORGANIZATION ( #208, #153 ) ;
#202 = FACE_OUTER_BOUND ( 'NONE', #149, .T. ) ;
#203 = ADVANCED_FACE ( 'NONE', ( #242 ), #51, .T. ) ;
#204 = DIRECTION ( 'NONE',  ( 1.000000000000000000, 0.000000000000000000, 0.000000000000000000 ) ) ;
#205 = CARTESIAN_POINT ( 'NONE',  ( 3.000000000000000444, 2.234980408443939306E-17, -0.1775000000000031830 ) ) ;
#206 = AXIS2_PLACEMENT_3D ( 'NONE', #100, #34, #118 ) ;
#207 = VECTOR ( 'NONE', #156, 39.37007874015748143 ) ;
#208 = PERSON ( 'UNSPECIFIED', 'UNSPECIFIED', 'UNSPECIFIED', ('UNSPECIFIED'), ('UNSPECIFIED'), ('UNSPECIFIED') ) ;
#209 = AXIS2_PLACEMENT_3D ( 'NONE', #110, #7, #178 ) ;
#210 = CONICAL_SURFACE ( 'NONE', #251, 0.1775000000000031830, 0.7853981633974447263 ) ;
#211 = APPLICATION_CONTEXT ( 'configuration controlled 3d designs of mechanical parts and assemblies' ) ;
#212 = ORIENTED_EDGE ( 'NONE', *, *, #101, .T. ) ;
#213 = DATE_TIME_ROLE ( 'classification_date' ) ;
#214 = CC_DESIGN_PERSON_AND_ORGANIZATION_ASSIGNMENT ( #161, #256, ( #95 ) ) ;
#215 = MECHANICAL_CONTEXT ( 'NONE', #211, 'mechanical' ) ;
#216 = VERTEX_POINT ( 'NONE', #232 ) ;
#217 = DATE_TIME_ROLE ( 'creation_date' ) ;
#218 = APPROVAL_DATE_TIME ( #124, #233 ) ;
#219 = EDGE_CURVE ( 'NONE', #104, #249, #195, .T. ) ;
#220 = VERTEX_POINT ( 'NONE', #19 ) ;
#221 = DIRECTION ( 'NONE',  ( 1.000000000000000000, -0.000000000000000000, -0.000000000000000000 ) ) ;
#222 = CARTESIAN_POINT ( 'NONE',  ( 2.990000000000003322, 2.296212748401286801E-17, -0.1875000000000000278 ) ) ;
#223 = CIRCLE ( 'NONE', #38, 0.1875000000000000278 ) ;
#224 = EDGE_CURVE ( 'NONE', #249, #104, #52, .T. ) ;
#225 = LINE ( 'NONE', #196, #231 ) ;
#226 = CARTESIAN_POINT ( 'NONE',  ( -2.989999999999995772, 0.000000000000000000, -0.1875000000000000278 ) ) ;
#227 = EDGE_CURVE ( 'NONE', #45, #220, #243, .T. ) ;
#228 = DIRECTION ( 'NONE',  ( 0.000000000000000000, 0.000000000000000000, 1.000000000000000000 ) ) ;
#229 = VECTOR ( 'NONE', #197, 39.37007874015748854 ) ;
#230 = DIRECTION ( 'NONE',  ( -1.000000000000000000, 0.000000000000000000, 0.000000000000000000 ) ) ;
#231 = VECTOR ( 'NONE', #91, 39.37007874015748143 ) ;
#232 = CARTESIAN_POINT ( 'NONE',  ( -2.989999999999995772, 2.296212748401286801E-17, -0.1875000000000000278 ) ) ;
#233 = APPROVAL ( #103, 'UNSPECIFIED' ) ;
#234 = EDGE_CURVE ( 'NONE', #261, #45, #276, .T. ) ;
#235 = COORDINATED_UNIVERSAL_TIME_OFFSET ( 5, 0, .BEHIND. ) ;
#236 = AXIS2_PLACEMENT_3D ( 'NONE', #137, #230, #138 ) ;
#237 = DATE_AND_TIME ( #171, #116 ) ;
#238 = EDGE_LOOP ( 'NONE', ( #147, #172, #259, #85 ) ) ;
#239 = APPLICATION_PROTOCOL_DEFINITION ( 'international standard', 'config_control_design', 1994, #155 ) ;
#240 = ORIENTED_EDGE ( 'NONE', *, *, #83, .F. ) ;
#241 = EDGE_LOOP ( 'NONE', ( #143, #1, #66, #141 ) ) ;
#242 = FACE_OUTER_BOUND ( 'NONE', #238, .T. ) ;
#243 = CIRCLE ( 'NONE', #236, 0.1875000000000000278 ) ;
#244 =( GEOMETRIC_REPRESENTATION_CONTEXT ( 3 ) GLOBAL_UNCERTAINTY_ASSIGNED_CONTEXT ( ( #126 ) ) GLOBAL_UNIT_ASSIGNED_CONTEXT ( ( #173, #47, #5 ) ) REPRESENTATION_CONTEXT ( 'NONE', 'WORKASPACE' ) );
#245 = DIRECTION ( 'NONE',  ( 1.000000000000000000, -0.000000000000000000, -0.000000000000000000 ) ) ;
#246 = CIRCLE ( 'NONE', #175, 0.1875000000000000278 ) ;
#247 = CARTESIAN_POINT ( 'NONE',  ( -2.989999999999995772, 2.296212748401287726E-17, 0.1875000000000000278 ) ) ;
#248 = CC_DESIGN_PERSON_AND_ORGANIZATION_ASSIGNMENT ( #108, #145, ( #131 ) ) ;
#249 = VERTEX_POINT ( 'NONE', #36 ) ;
#250 = CONICAL_SURFACE ( 'NONE', #255, 0.1775000000000031830, 0.7853981633974447263 ) ;
#251 = AXIS2_PLACEMENT_3D ( 'NONE', #67, #151, #132 ) ;
#252 = EDGE_LOOP ( 'NONE', ( #50, #146, #212, #61 ) ) ;
#253 = PLANE ( 'NONE',  #58 ) ;
#254 = ADVANCED_FACE ( 'NONE', ( #165 ), #253, .T. ) ;
#255 = AXIS2_PLACEMENT_3D ( 'NONE', #70, #179, #228 ) ;
#256 = PERSON_AND_ORGANIZATION_ROLE ( 'classification_officer' ) ;
#257 = PERSON_AND_ORGANIZATION_ROLE ( 'design_owner' ) ;
#258 = DIMENSIONAL_EXPONENTS ( 1.000000000000000000, 0.000000000000000000, 0.000000000000000000, 0.000000000000000000, 0.000000000000000000, 0.000000000000000000, 0.000000000000000000 ) ;
#259 = ORIENTED_EDGE ( 'NONE', *, *, #129, .T. ) ;
#260 = CARTESIAN_POINT ( 'NONE',  ( 0.000000000000000000, 0.000000000000000000, 0.000000000000000000 ) ) ;
#261 = VERTEX_POINT ( 'NONE', #205 ) ;
#262 = CC_DESIGN_PERSON_AND_ORGANIZATION_ASSIGNMENT ( #2, #59, ( #41 ) ) ;
#263 = FACE_OUTER_BOUND ( 'NONE', #22, .T. ) ;
#264 = CARTESIAN_POINT ( 'NONE',  ( -2.989999999999995772, 0.000000000000000000, 0.000000000000000000 ) ) ;
#265 = DIRECTION ( 'NONE',  ( 0.000000000000000000, 0.000000000000000000, 1.000000000000000000 ) ) ;
#266 = VECTOR ( 'NONE', #57, 39.37007874015748854 ) ;
#267 = ORIENTED_EDGE ( 'NONE', *, *, #183, .F. ) ;
#268 = LOCAL_TIME ( 8, 29, 1.000000000000000000, #64 ) ;
#269 = CC_DESIGN_APPROVAL ( #17, ( #131 ) ) ;
#270 = DIRECTION ( 'NONE',  ( 0.000000000000000000, 0.000000000000000000, 1.000000000000000000 ) ) ;
#271 = DIRECTION ( 'NONE',  ( -1.000000000000000000, 0.000000000000000000, 0.000000000000000000 ) ) ;
#272 = VECTOR ( 'NONE', #54, 39.37007874015748854 ) ;
#273 = ADVANCED_FACE ( 'NONE', ( #15 ), #98, .F. ) ;
#274 = DIRECTION ( 'NONE',  ( 0.000000000000000000, 0.000000000000000000, -1.000000000000000000 ) ) ;
#275 = PERSON_AND_ORGANIZATION_ROLE ( 'creator' ) ;
#276 = LINE ( 'NONE', #80, #266 ) ;
#277 = APPROVAL_DATE_TIME ( #97, #13 ) ;
#278 = CIRCLE ( 'NONE', #187, 0.1875000000000000278 ) ;
ENDSEC;
END-ISO-10303-21;
