ISO-10303-21;
HEADER;
FILE_DESCRIPTION (( 'STEP AP203' ),
    '1' );
FILE_NAME ('NIL04-012.000-SL.step',
    '2023-06-07T12:28:56',
    ( '' ),
    ( '' ),
    'SwSTEP 2.0',
    'SolidWorks 2021',
    '' );
FILE_SCHEMA (( 'CONFIG_CONTROL_DESIGN' ));
ENDSEC;

DATA;
#1 = FACE_OUTER_BOUND ( 'NONE', #68, .T. ) ;
#2 = VECTOR ( 'NONE', #105, 39.37007874015748854 ) ;
#3 = APPROVAL_ROLE ( '' ) ;
#4 = CARTESIAN_POINT ( 'NONE',  ( -5.989999999999990443, 0.000000000000000000, 0.000000000000000000 ) ) ;
#5 = MECHANICAL_CONTEXT ( 'NONE', #80, 'mechanical' ) ;
#6 = DIRECTION ( 'NONE',  ( -1.000000000000000000, -0.000000000000000000, -0.000000000000000000 ) ) ;
#7 = EDGE_CURVE ( 'NONE', #20, #134, #40, .T. ) ;
#8 = DIRECTION ( 'NONE',  ( 1.000000000000000000, 0.000000000000000000, 0.000000000000000000 ) ) ;
#9 = DIRECTION ( 'NONE',  ( 0.000000000000000000, 0.000000000000000000, 1.000000000000000000 ) ) ;
#10 = CIRCLE ( 'NONE', #234, 0.1250000000000000000 ) ;
#11 = APPROVAL_PERSON_ORGANIZATION ( #106, #166, #145 ) ;
#12 = DIRECTION ( 'NONE',  ( 0.000000000000000000, 0.000000000000000000, -1.000000000000000000 ) ) ;
#13 = EDGE_CURVE ( 'NONE', #130, #251, #143, .T. ) ;
#14 = PLANE ( 'NONE',  #170 ) ;
#15 = DIRECTION ( 'NONE',  ( 0.000000000000000000, 0.000000000000000000, -1.000000000000000000 ) ) ;
#16 = CARTESIAN_POINT ( 'NONE',  ( 6.000000000000000888, 0.000000000000000000, 0.000000000000000000 ) ) ;
#17 = CONICAL_SURFACE ( 'NONE', #66, 0.1250000000000000000, 0.7853981633974269627 ) ;
#18 = CC_DESIGN_APPROVAL ( #166, ( #248 ) ) ;
#19 = EDGE_CURVE ( 'NONE', #130, #199, #260, .T. ) ;
#20 = VERTEX_POINT ( 'NONE', #195 ) ;
#21 = ORIENTED_EDGE ( 'NONE', *, *, #210, .T. ) ;
#22 = ORIENTED_EDGE ( 'NONE', *, *, #96, .T. ) ;
#23 = ADVANCED_FACE ( 'NONE', ( #159 ), #27, .T. ) ;
#24 = CALENDAR_DATE ( 2023, 7, 6 ) ;
#25 = CARTESIAN_POINT ( 'NONE',  ( -6.000000000000000888, 0.000000000000000000, 0.000000000000000000 ) ) ;
#26 = ORGANIZATION ( 'UNSPECIFIED', 'UNSPECIFIED', '' ) ;
#27 = CYLINDRICAL_SURFACE ( 'NONE', #226, 0.1250000000000000000 ) ;
#28 = APPROVAL_DATE_TIME ( #117, #201 ) ;
#29 = ADVANCED_FACE ( 'NONE', ( #33 ), #190, .F. ) ;
#30 = FACE_OUTER_BOUND ( 'NONE', #91, .T. ) ;
#31 = APPROVAL_STATUS ( 'not_yet_approved' ) ;
#32 = DIRECTION ( 'NONE',  ( -0.7071067811865625607, 0.000000000000000000, 0.7071067811865322517 ) ) ;
#33 = FACE_OUTER_BOUND ( 'NONE', #133, .T. ) ;
#34 = APPROVAL ( #31, 'UNSPECIFIED' ) ;
#35 = CARTESIAN_POINT ( 'NONE',  ( -5.989999999999990443, 0.000000000000000000, -0.1250000000000000000 ) ) ;
#36 = DIRECTION ( 'NONE',  ( 1.000000000000000000, 0.000000000000000000, 0.000000000000000000 ) ) ;
#37 = AXIS2_PLACEMENT_3D ( 'NONE', #163, #268, #82 ) ;
#38 = PRODUCT_DEFINITION_FORMATION_WITH_SPECIFIED_SOURCE ( 'ANY', '', #266, .NOT_KNOWN. ) ;
#39 = FACE_OUTER_BOUND ( 'NONE', #64, .T. ) ;
#40 = CIRCLE ( 'NONE', #236, 0.1250000000000000000 ) ;
#41 = PERSON ( 'UNSPECIFIED', 'UNSPECIFIED', 'UNSPECIFIED', ('UNSPECIFIED'), ('UNSPECIFIED'), ('UNSPECIFIED') ) ;
#42 = CONICAL_SURFACE ( 'NONE', #196, 0.1150000000000079015, 0.7853981633974269627 ) ;
#43 = VERTEX_POINT ( 'NONE', #102 ) ;
#44 = PERSON_AND_ORGANIZATION ( #41, #26 ) ;
#45 = APPROVAL_DATE_TIME ( #263, #34 ) ;
#46 = EDGE_LOOP ( 'NONE', ( #188, #55, #94, #90 ) ) ;
#47 = PERSON_AND_ORGANIZATION ( #41, #26 ) ;
#48 = VERTEX_POINT ( 'NONE', #193 ) ;
#49 = AXIS2_PLACEMENT_3D ( 'NONE', #97, #237, #139 ) ;
#50 = COORDINATED_UNIVERSAL_TIME_OFFSET ( 5, 0, .BEHIND. ) ;
#51 = AXIS2_PLACEMENT_3D ( 'NONE', #164, #84, #59 ) ;
#52 = CIRCLE ( 'NONE', #51, 0.1149999999999904293 ) ;
#53 = PERSON_AND_ORGANIZATION_ROLE ( 'design_owner' ) ;
#54 = CARTESIAN_POINT ( 'NONE',  ( -5.989999999999990443, 1.530808498934191509E-17, 0.1250000000000000000 ) ) ;
#55 = ORIENTED_EDGE ( 'NONE', *, *, #191, .F. ) ;
#56 = CONICAL_SURFACE ( 'NONE', #93, 0.1150000000000079015, 0.7853981633974269627 ) ;
#57 = FACE_OUTER_BOUND ( 'NONE', #109, .T. ) ;
#58 = APPROVAL_PERSON_ORGANIZATION ( #115, #201, #70 ) ;
#59 = DIRECTION ( 'NONE',  ( 0.000000000000000000, 0.000000000000000000, -1.000000000000000000 ) ) ;
#60 = DIRECTION ( 'NONE',  ( 0.000000000000000000, 0.000000000000000000, -1.000000000000000000 ) ) ;
#61 = EDGE_CURVE ( 'NONE', #134, #20, #151, .T. ) ;
#62 = CARTESIAN_POINT ( 'NONE',  ( 6.000000000000000888, 1.530808498934191201E-17, -0.1250000000000000000 ) ) ;
#63 = LENGTH_MEASURE_WITH_UNIT ( LENGTH_MEASURE( 0.02539999999999999897 ), #202 );
#64 = EDGE_LOOP ( 'NONE', ( #88, #75, #167, #256 ) ) ;
#65 = AXIS2_PLACEMENT_3D ( 'NONE', #249, #183, #8 ) ;
#66 = AXIS2_PLACEMENT_3D ( 'NONE', #4, #99, #86 ) ;
#67 = ORIENTED_EDGE ( 'NONE', *, *, #225, .F. ) ;
#68 = EDGE_LOOP ( 'NONE', ( #67, #273, #22, #69 ) ) ;
#69 = ORIENTED_EDGE ( 'NONE', *, *, #7, .F. ) ;
#70 = APPROVAL_ROLE ( '' ) ;
#71 = DIRECTION ( 'NONE',  ( 0.000000000000000000, 0.000000000000000000, -1.000000000000000000 ) ) ;
#72 = VECTOR ( 'NONE', #124, 39.37007874015748854 ) ;
#73 = EDGE_CURVE ( 'NONE', #134, #251, #76, .T. ) ;
#74 = DATE_AND_TIME ( #100, #200 ) ;
#75 = ORIENTED_EDGE ( 'NONE', *, *, #225, .T. ) ;
#76 = LINE ( 'NONE', #194, #271 ) ;
#77 = CARTESIAN_POINT ( 'NONE',  ( 6.000000000000000888, 0.000000000000000000, 0.1150000000000079015 ) ) ;
#78 = SHAPE_DEFINITION_REPRESENTATION ( #275, #156 ) ;
#79 = CARTESIAN_POINT ( 'NONE',  ( 6.000000000000000888, 0.000000000000000000, 0.000000000000000000 ) ) ;
#80 = APPLICATION_CONTEXT ( 'configuration controlled 3d designs of mechanical parts and assemblies' ) ;
#81 = COORDINATED_UNIVERSAL_TIME_OFFSET ( 5, 0, .BEHIND. ) ;
#82 = DIRECTION ( 'NONE',  ( 0.000000000000000000, 0.000000000000000000, -1.000000000000000000 ) ) ;
#83 = CC_DESIGN_PERSON_AND_ORGANIZATION_ASSIGNMENT ( #160, #211, ( #38 ) ) ;
#84 = DIRECTION ( 'NONE',  ( -1.000000000000000000, -0.000000000000000000, -0.000000000000000000 ) ) ;
#85 = CIRCLE ( 'NONE', #92, 0.1150000000000079015 ) ;
#86 = DIRECTION ( 'NONE',  ( 0.000000000000000000, 0.000000000000000000, -1.000000000000000000 ) ) ;
#87 = LOCAL_TIME ( 8, 28, 56.00000000000000000, #81 ) ;
#88 = ORIENTED_EDGE ( 'NONE', *, *, #243, .F. ) ;
#89 = CONICAL_SURFACE ( 'NONE', #37, 0.1250000000000000000, 0.7853981633974269627 ) ;
#90 = ORIENTED_EDGE ( 'NONE', *, *, #245, .F. ) ;
#91 = EDGE_LOOP ( 'NONE', ( #278, #21, #272, #229 ) ) ;
#92 = AXIS2_PLACEMENT_3D ( 'NONE', #125, #172, #12 ) ;
#93 = AXIS2_PLACEMENT_3D ( 'NONE', #101, #209, #118 ) ;
#94 = ORIENTED_EDGE ( 'NONE', *, *, #180, .T. ) ;
#95 = PERSON_AND_ORGANIZATION_ROLE ( 'creator' ) ;
#96 = EDGE_CURVE ( 'NONE', #48, #134, #137, .T. ) ;
#97 = CARTESIAN_POINT ( 'NONE',  ( -5.989999999999990443, 0.000000000000000000, 0.000000000000000000 ) ) ;
#98 = CALENDAR_DATE ( 2023, 7, 6 ) ;
#99 = DIRECTION ( 'NONE',  ( 1.000000000000000000, -0.000000000000000000, -0.000000000000000000 ) ) ;
#100 = CALENDAR_DATE ( 2023, 7, 6 ) ;
#101 = CARTESIAN_POINT ( 'NONE',  ( 6.000000000000000888, 0.000000000000000000, 0.000000000000000000 ) ) ;
#102 = CARTESIAN_POINT ( 'NONE',  ( -5.989999999999990443, 1.530808498934191201E-17, -0.1250000000000000000 ) ) ;
#103 = APPROVAL_STATUS ( 'not_yet_approved' ) ;
#104 = PRODUCT_RELATED_PRODUCT_CATEGORY ( 'detail', '', ( #266 ) ) ;
#105 = DIRECTION ( 'NONE',  ( 0.7071067811865625607, 0.000000000000000000, -0.7071067811865322517 ) ) ;
#106 = PERSON_AND_ORGANIZATION ( #41, #26 ) ;
#107 = DIRECTION ( 'NONE',  ( 1.000000000000000000, -0.000000000000000000, -0.000000000000000000 ) ) ;
#108 = ADVANCED_FACE ( 'NONE', ( #30 ), #162, .T. ) ;
#109 = EDGE_LOOP ( 'NONE', ( #207, #203 ) ) ;
#110 =( NAMED_UNIT ( * ) SI_UNIT ( $, .STERADIAN. ) SOLID_ANGLE_UNIT ( ) );
#111 = EDGE_CURVE ( 'NONE', #48, #114, #85, .T. ) ;
#112 = ORIENTED_EDGE ( 'NONE', *, *, #180, .F. ) ;
#113 = APPLICATION_PROTOCOL_DEFINITION ( 'international standard', 'config_control_design', 1994, #80 ) ;
#114 = VERTEX_POINT ( 'NONE', #181 ) ;
#115 = PERSON_AND_ORGANIZATION ( #41, #26 ) ;
#116 = ORIENTED_EDGE ( 'NONE', *, *, #7, .T. ) ;
#117 = DATE_AND_TIME ( #24, #205 ) ;
#118 = DIRECTION ( 'NONE',  ( 0.000000000000000000, 0.000000000000000000, 1.000000000000000000 ) ) ;
#119 = CC_DESIGN_APPROVAL ( #201, ( #38 ) ) ;
#120 = CARTESIAN_POINT ( 'NONE',  ( 5.990000000000008207, 0.000000000000000000, 0.1250000000000000000 ) ) ;
#121 = PERSON_AND_ORGANIZATION ( #41, #26 ) ;
#122 = ADVANCED_FACE ( 'NONE', ( #1 ), #56, .T. ) ;
#123 = CARTESIAN_POINT ( 'NONE',  ( 5.990000000000008207, 0.000000000000000000, 0.000000000000000000 ) ) ;
#124 = DIRECTION ( 'NONE',  ( 0.7071067811865625607, 8.659560562354747969E-17, 0.7071067811865322517 ) ) ;
#125 = CARTESIAN_POINT ( 'NONE',  ( 6.000000000000000888, 0.000000000000000000, 0.000000000000000000 ) ) ;
#126 = DATE_AND_TIME ( #147, #87 ) ;
#127 = DIRECTION ( 'NONE',  ( -0.7071067811865625607, 8.659560562354747969E-17, -0.7071067811865322517 ) ) ;
#128 = EDGE_CURVE ( 'NONE', #43, #251, #277, .T. ) ;
#129 = DIRECTION ( 'NONE',  ( -1.000000000000000000, 0.000000000000000000, 0.000000000000000000 ) ) ;
#130 = VERTEX_POINT ( 'NONE', #212 ) ;
#131 = UNCERTAINTY_MEASURE_WITH_UNIT (LENGTH_MEASURE( 1.000000000000000082E-05 ), #227, 'distance_accuracy_value', 'NONE');
#132 = CC_DESIGN_PERSON_AND_ORGANIZATION_ASSIGNMENT ( #47, #140, ( #38 ) ) ;
#133 = EDGE_LOOP ( 'NONE', ( #228, #153 ) ) ;
#134 = VERTEX_POINT ( 'NONE', #120 ) ;
#135 = PERSON_AND_ORGANIZATION ( #41, #26 ) ;
#136 = ORIENTED_EDGE ( 'NONE', *, *, #128, .F. ) ;
#137 = LINE ( 'NONE', #77, #158 ) ;
#138 = AXIS2_PLACEMENT_3D ( 'NONE', #217, #265, #264 ) ;
#139 = DIRECTION ( 'NONE',  ( 0.000000000000000000, 0.000000000000000000, -1.000000000000000000 ) ) ;
#140 = PERSON_AND_ORGANIZATION_ROLE ( 'creator' ) ;
#141 = DIRECTION ( 'NONE',  ( 0.000000000000000000, 0.000000000000000000, -1.000000000000000000 ) ) ;
#142 = DIRECTION ( 'NONE',  ( 0.000000000000000000, 0.000000000000000000, 1.000000000000000000 ) ) ;
#143 = LINE ( 'NONE', #54, #72 ) ;
#144 = CC_DESIGN_PERSON_AND_ORGANIZATION_ASSIGNMENT ( #215, #53, ( #266 ) ) ;
#145 = APPROVAL_ROLE ( '' ) ;
#146 = DIRECTION ( 'NONE',  ( 0.000000000000000000, 0.000000000000000000, 1.000000000000000000 ) ) ;
#147 = CALENDAR_DATE ( 2023, 7, 6 ) ;
#148 = CARTESIAN_POINT ( 'NONE',  ( 6.000000000000000888, 0.000000000000000000, 0.000000000000000000 ) ) ;
#149 = LINE ( 'NONE', #62, #233 ) ;
#150 = DIRECTION ( 'NONE',  ( -1.000000000000000000, -0.000000000000000000, -0.000000000000000000 ) ) ;
#151 = CIRCLE ( 'NONE', #138, 0.1250000000000000000 ) ;
#152 = PRODUCT_DEFINITION ( 'UNKNOWN', '', #38, #186 ) ;
#153 = ORIENTED_EDGE ( 'NONE', *, *, #19, .T. ) ;
#154 =( GEOMETRIC_REPRESENTATION_CONTEXT ( 3 ) GLOBAL_UNCERTAINTY_ASSIGNED_CONTEXT ( ( #131 ) ) GLOBAL_UNIT_ASSIGNED_CONTEXT ( ( #227, #276, #110 ) ) REPRESENTATION_CONTEXT ( 'NONE', 'WORKASPACE' ) );
#155 = CALENDAR_DATE ( 2023, 7, 6 ) ;
#156 = ADVANCED_BREP_SHAPE_REPRESENTATION ( 'NIL04-012.000-SL', ( #244, #65 ), #154 ) ;
#157 = COORDINATED_UNIVERSAL_TIME_OFFSET ( 5, 0, .BEHIND. ) ;
#158 = VECTOR ( 'NONE', #32, 39.37007874015748854 ) ;
#159 = FACE_OUTER_BOUND ( 'NONE', #169, .T. ) ;
#160 = PERSON_AND_ORGANIZATION ( #41, #26 ) ;
#161 = ORIENTED_EDGE ( 'NONE', *, *, #19, .F. ) ;
#162 = CYLINDRICAL_SURFACE ( 'NONE', #231, 0.1250000000000000000 ) ;
#163 = CARTESIAN_POINT ( 'NONE',  ( -5.989999999999990443, 0.000000000000000000, 0.000000000000000000 ) ) ;
#164 = CARTESIAN_POINT ( 'NONE',  ( -6.000000000000000888, 0.000000000000000000, 0.000000000000000000 ) ) ;
#165 = CLOSED_SHELL ( 'NONE', ( #175, #230, #108, #23, #253, #29, #122, #239 ) ) ;
#166 = APPROVAL ( #103, 'UNSPECIFIED' ) ;
#167 = ORIENTED_EDGE ( 'NONE', *, *, #61, .F. ) ;
#168 = ORIENTED_EDGE ( 'NONE', *, *, #210, .F. ) ;
#169 = EDGE_LOOP ( 'NONE', ( #168, #116, #258, #254 ) ) ;
#170 = AXIS2_PLACEMENT_3D ( 'NONE', #148, #36, #223 ) ;
#171 = COORDINATED_UNIVERSAL_TIME_OFFSET ( 5, 0, .BEHIND. ) ;
#172 = DIRECTION ( 'NONE',  ( 1.000000000000000000, 0.000000000000000000, 0.000000000000000000 ) ) ;
#173 = DIMENSIONAL_EXPONENTS ( 1.000000000000000000, 0.000000000000000000, 0.000000000000000000, 0.000000000000000000, 0.000000000000000000, 0.000000000000000000, 0.000000000000000000 ) ;
#174 = DIRECTION ( 'NONE',  ( -1.000000000000000000, -0.000000000000000000, -0.000000000000000000 ) ) ;
#175 = ADVANCED_FACE ( 'NONE', ( #192 ), #17, .T. ) ;
#176 = AXIS2_PLACEMENT_3D ( 'NONE', #261, #214, #71 ) ;
#177 = DIRECTION ( 'NONE',  ( 0.000000000000000000, 0.000000000000000000, -1.000000000000000000 ) ) ;
#178 = APPROVAL_PERSON_ORGANIZATION ( #44, #34, #3 ) ;
#179 = CARTESIAN_POINT ( 'NONE',  ( 6.000000000000000888, 0.000000000000000000, 0.000000000000000000 ) ) ;
#180 = EDGE_CURVE ( 'NONE', #199, #43, #220, .T. ) ;
#181 = CARTESIAN_POINT ( 'NONE',  ( 6.000000000000000888, 1.469576158976872364E-17, -0.1150000000000079015 ) ) ;
#182 = CARTESIAN_POINT ( 'NONE',  ( -6.000000000000000888, 0.000000000000000000, -0.1149999999999904293 ) ) ;
#183 = DIRECTION ( 'NONE',  ( 0.000000000000000000, 0.000000000000000000, 1.000000000000000000 ) ) ;
#184 = APPROVAL_DATE_TIME ( #126, #166 ) ;
#185 = CARTESIAN_POINT ( 'NONE',  ( -5.989999999999990443, 0.000000000000000000, 0.1250000000000000000 ) ) ;
#186 = DESIGN_CONTEXT ( 'detailed design', #250, 'design' ) ;
#187 = CIRCLE ( 'NONE', #262, 0.1150000000000079015 ) ;
#188 = ORIENTED_EDGE ( 'NONE', *, *, #13, .F. ) ;
#189 = SECURITY_CLASSIFICATION_LEVEL ( 'unclassified' ) ;
#190 = PLANE ( 'NONE',  #176 ) ;
#191 = EDGE_CURVE ( 'NONE', #199, #130, #52, .T. ) ;
#192 = FACE_OUTER_BOUND ( 'NONE', #242, .T. ) ;
#193 = CARTESIAN_POINT ( 'NONE',  ( 6.000000000000000888, 0.000000000000000000, 0.1150000000000079015 ) ) ;
#194 = CARTESIAN_POINT ( 'NONE',  ( 6.000000000000000888, 0.000000000000000000, 0.1250000000000000000 ) ) ;
#195 = CARTESIAN_POINT ( 'NONE',  ( 5.990000000000008207, 1.530808498934191201E-17, -0.1250000000000000000 ) ) ;
#196 = AXIS2_PLACEMENT_3D ( 'NONE', #79, #129, #146 ) ;
#197 = CC_DESIGN_PERSON_AND_ORGANIZATION_ASSIGNMENT ( #121, #259, ( #248 ) ) ;
#198 = LINE ( 'NONE', #224, #269 ) ;
#199 = VERTEX_POINT ( 'NONE', #182 ) ;
#200 = LOCAL_TIME ( 8, 28, 56.00000000000000000, #213 ) ;
#201 = APPROVAL ( #208, 'UNSPECIFIED' ) ;
#202 =( LENGTH_UNIT ( ) NAMED_UNIT ( * ) SI_UNIT ( $, .METRE. ) );
#203 = ORIENTED_EDGE ( 'NONE', *, *, #243, .T. ) ;
#204 = CC_DESIGN_APPROVAL ( #34, ( #152 ) ) ;
#205 = LOCAL_TIME ( 8, 28, 56.00000000000000000, #157 ) ;
#206 = DATE_AND_TIME ( #155, #247 ) ;
#207 = ORIENTED_EDGE ( 'NONE', *, *, #111, .T. ) ;
#208 = APPROVAL_STATUS ( 'not_yet_approved' ) ;
#209 = DIRECTION ( 'NONE',  ( -1.000000000000000000, 0.000000000000000000, 0.000000000000000000 ) ) ;
#210 = EDGE_CURVE ( 'NONE', #20, #43, #149, .T. ) ;
#211 = PERSON_AND_ORGANIZATION_ROLE ( 'design_supplier' ) ;
#212 = CARTESIAN_POINT ( 'NONE',  ( -6.000000000000000888, 1.469576158976765128E-17, 0.1149999999999904293 ) ) ;
#213 = COORDINATED_UNIVERSAL_TIME_OFFSET ( 5, 0, .BEHIND. ) ;
#214 = DIRECTION ( 'NONE',  ( 1.000000000000000000, 0.000000000000000000, 0.000000000000000000 ) ) ;
#215 = PERSON_AND_ORGANIZATION ( #41, #26 ) ;
#216 = AXIS2_PLACEMENT_3D ( 'NONE', #25, #235, #141 ) ;
#217 = CARTESIAN_POINT ( 'NONE',  ( 5.990000000000008207, 0.000000000000000000, 0.000000000000000000 ) ) ;
#218 = CARTESIAN_POINT ( 'NONE',  ( 6.000000000000000888, 0.000000000000000000, 0.000000000000000000 ) ) ;
#219 = CC_DESIGN_SECURITY_CLASSIFICATION ( #248, ( #38 ) ) ;
#220 = LINE ( 'NONE', #35, #2 ) ;
#221 = FACE_OUTER_BOUND ( 'NONE', #46, .T. ) ;
#222 = DIRECTION ( 'NONE',  ( 1.000000000000000000, 0.000000000000000000, 0.000000000000000000 ) ) ;
#223 = DIRECTION ( 'NONE',  ( 0.000000000000000000, 0.000000000000000000, -1.000000000000000000 ) ) ;
#224 = CARTESIAN_POINT ( 'NONE',  ( 6.000000000000000888, 1.408343819019553218E-17, -0.1150000000000079015 ) ) ;
#225 = EDGE_CURVE ( 'NONE', #114, #20, #198, .T. ) ;
#226 = AXIS2_PLACEMENT_3D ( 'NONE', #179, #174, #142 ) ;
#227 =( CONVERSION_BASED_UNIT ( 'INCH', #63 ) LENGTH_UNIT ( ) NAMED_UNIT ( #173 ) );
#228 = ORIENTED_EDGE ( 'NONE', *, *, #191, .T. ) ;
#229 = ORIENTED_EDGE ( 'NONE', *, *, #73, .F. ) ;
#230 = ADVANCED_FACE ( 'NONE', ( #39 ), #42, .T. ) ;
#231 = AXIS2_PLACEMENT_3D ( 'NONE', #218, #6, #9 ) ;
#232 = ORIENTED_EDGE ( 'NONE', *, *, #13, .T. ) ;
#233 = VECTOR ( 'NONE', #150, 39.37007874015748143 ) ;
#234 = AXIS2_PLACEMENT_3D ( 'NONE', #270, #107, #60 ) ;
#235 = DIRECTION ( 'NONE',  ( -1.000000000000000000, -0.000000000000000000, -0.000000000000000000 ) ) ;
#236 = AXIS2_PLACEMENT_3D ( 'NONE', #123, #241, #177 ) ;
#237 = DIRECTION ( 'NONE',  ( 1.000000000000000000, -0.000000000000000000, -0.000000000000000000 ) ) ;
#238 = DIRECTION ( 'NONE',  ( -1.000000000000000000, -0.000000000000000000, -0.000000000000000000 ) ) ;
#239 = ADVANCED_FACE ( 'NONE', ( #221 ), #89, .T. ) ;
#240 = DATE_TIME_ROLE ( 'classification_date' ) ;
#241 = DIRECTION ( 'NONE',  ( -1.000000000000000000, 0.000000000000000000, 0.000000000000000000 ) ) ;
#242 = EDGE_LOOP ( 'NONE', ( #161, #232, #136, #112 ) ) ;
#243 = EDGE_CURVE ( 'NONE', #114, #48, #187, .T. ) ;
#244 = MANIFOLD_SOLID_BREP ( 'Chamfer1', #165 ) ;
#245 = EDGE_CURVE ( 'NONE', #251, #43, #10, .T. ) ;
#246 = CC_DESIGN_PERSON_AND_ORGANIZATION_ASSIGNMENT ( #135, #95, ( #152 ) ) ;
#247 = LOCAL_TIME ( 8, 28, 56.00000000000000000, #171 ) ;
#248 = SECURITY_CLASSIFICATION ( '', '', #189 ) ;
#249 = CARTESIAN_POINT ( 'NONE',  ( 0.000000000000000000, 0.000000000000000000, 0.000000000000000000 ) ) ;
#250 = APPLICATION_CONTEXT ( 'configuration controlled 3d designs of mechanical parts and assemblies' ) ;
#251 = VERTEX_POINT ( 'NONE', #185 ) ;
#252 = LOCAL_TIME ( 8, 28, 56.00000000000000000, #50 ) ;
#253 = ADVANCED_FACE ( 'NONE', ( #57 ), #14, .T. ) ;
#254 = ORIENTED_EDGE ( 'NONE', *, *, #245, .T. ) ;
#255 = APPLICATION_PROTOCOL_DEFINITION ( 'international standard', 'config_control_design', 1994, #250 ) ;
#256 = ORIENTED_EDGE ( 'NONE', *, *, #96, .F. ) ;
#257 = DATE_TIME_ROLE ( 'creation_date' ) ;
#258 = ORIENTED_EDGE ( 'NONE', *, *, #73, .T. ) ;
#259 = PERSON_AND_ORGANIZATION_ROLE ( 'classification_officer' ) ;
#260 = CIRCLE ( 'NONE', #216, 0.1149999999999904293 ) ;
#261 = CARTESIAN_POINT ( 'NONE',  ( -6.000000000000000888, 0.000000000000000000, 0.000000000000000000 ) ) ;
#262 = AXIS2_PLACEMENT_3D ( 'NONE', #16, #222, #15 ) ;
#263 = DATE_AND_TIME ( #98, #252 ) ;
#264 = DIRECTION ( 'NONE',  ( 0.000000000000000000, 0.000000000000000000, -1.000000000000000000 ) ) ;
#265 = DIRECTION ( 'NONE',  ( -1.000000000000000000, 0.000000000000000000, 0.000000000000000000 ) ) ;
#266 = PRODUCT ( 'NIL04-012.000-SL', 'NIL04-012.000-SL', '', ( #5 ) ) ;
#267 = CC_DESIGN_DATE_AND_TIME_ASSIGNMENT ( #206, #257, ( #152 ) ) ;
#268 = DIRECTION ( 'NONE',  ( 1.000000000000000000, -0.000000000000000000, -0.000000000000000000 ) ) ;
#269 = VECTOR ( 'NONE', #127, 39.37007874015748854 ) ;
#270 = CARTESIAN_POINT ( 'NONE',  ( -5.989999999999990443, 0.000000000000000000, 0.000000000000000000 ) ) ;
#271 = VECTOR ( 'NONE', #238, 39.37007874015748143 ) ;
#272 = ORIENTED_EDGE ( 'NONE', *, *, #128, .T. ) ;
#273 = ORIENTED_EDGE ( 'NONE', *, *, #111, .F. ) ;
#274 = CC_DESIGN_DATE_AND_TIME_ASSIGNMENT ( #74, #240, ( #248 ) ) ;
#275 = PRODUCT_DEFINITION_SHAPE ( 'NONE', 'NONE',  #152 ) ;
#276 =( NAMED_UNIT ( * ) PLANE_ANGLE_UNIT ( ) SI_UNIT ( $, .RADIAN. ) );
#277 = CIRCLE ( 'NONE', #49, 0.1250000000000000000 ) ;
#278 = ORIENTED_EDGE ( 'NONE', *, *, #61, .T. ) ;
ENDSEC;
END-ISO-10303-21;
