ISO-10303-21;
HEADER;
FILE_DESCRIPTION (( 'STEP AP203' ),
    '1' );
FILE_NAME ('NIL04-006.000-SL.step',
    '2023-06-07T12:28:51',
    ( '' ),
    ( '' ),
    'SwSTEP 2.0',
    'SolidWorks 2021',
    '' );
FILE_SCHEMA (( 'CONFIG_CONTROL_DESIGN' ));
ENDSEC;

DATA;
#1 = DIRECTION ( 'NONE',  ( 0.000000000000000000, 0.000000000000000000, -1.000000000000000000 ) ) ;
#2 =( GEOMETRIC_REPRESENTATION_CONTEXT ( 3 ) GLOBAL_UNCERTAINTY_ASSIGNED_CONTEXT ( ( #102 ) ) GLOBAL_UNIT_ASSIGNED_CONTEXT ( ( #8, #164, #14 ) ) REPRESENTATION_CONTEXT ( 'NONE', 'WORKASPACE' ) );
#3 = ORIENTED_EDGE ( 'NONE', *, *, #121, .T. ) ;
#4 = CIRCLE ( 'NONE', #60, 0.1250000000000000000 ) ;
#5 = DIRECTION ( 'NONE',  ( 0.000000000000000000, 0.000000000000000000, -1.000000000000000000 ) ) ;
#6 = CONICAL_SURFACE ( 'NONE', #235, 0.1150000000000024475, 0.7853981633974543852 ) ;
#7 = APPROVAL ( #252, 'UNSPECIFIED' ) ;
#8 =( CONVERSION_BASED_UNIT ( 'INCH', #242 ) LENGTH_UNIT ( ) NAMED_UNIT ( #22 ) );
#9 = ORIENTED_EDGE ( 'NONE', *, *, #210, .T. ) ;
#10 = VECTOR ( 'NONE', #97, 39.37007874015748854 ) ;
#11 = CIRCLE ( 'NONE', #194, 0.1250000000000000000 ) ;
#12 = VERTEX_POINT ( 'NONE', #34 ) ;
#13 = CARTESIAN_POINT ( 'NONE',  ( -2.989999999999995772, 0.000000000000000000, 0.000000000000000000 ) ) ;
#14 =( NAMED_UNIT ( * ) SI_UNIT ( $, .STERADIAN. ) SOLID_ANGLE_UNIT ( ) );
#15 = DIRECTION ( 'NONE',  ( 0.000000000000000000, 0.000000000000000000, -1.000000000000000000 ) ) ;
#16 = COORDINATED_UNIVERSAL_TIME_OFFSET ( 5, 0, .BEHIND. ) ;
#17 = LINE ( 'NONE', #130, #10 ) ;
#18 = CC_DESIGN_SECURITY_CLASSIFICATION ( #243, ( #41 ) ) ;
#19 = APPLICATION_PROTOCOL_DEFINITION ( 'international standard', 'config_control_design', 1994, #150 ) ;
#20 = COORDINATED_UNIVERSAL_TIME_OFFSET ( 5, 0, .BEHIND. ) ;
#21 = FACE_OUTER_BOUND ( 'NONE', #64, .T. ) ;
#22 = DIMENSIONAL_EXPONENTS ( 1.000000000000000000, 0.000000000000000000, 0.000000000000000000, 0.000000000000000000, 0.000000000000000000, 0.000000000000000000, 0.000000000000000000 ) ;
#23 = LOCAL_TIME ( 8, 28, 51.00000000000000000, #20 ) ;
#24 = ORIENTED_EDGE ( 'NONE', *, *, #26, .F. ) ;
#25 = DIRECTION ( 'NONE',  ( 0.000000000000000000, 0.000000000000000000, 1.000000000000000000 ) ) ;
#26 = EDGE_CURVE ( 'NONE', #201, #125, #184, .T. ) ;
#27 = ORIENTED_EDGE ( 'NONE', *, *, #72, .T. ) ;
#28 = FACE_OUTER_BOUND ( 'NONE', #88, .T. ) ;
#29 = AXIS2_PLACEMENT_3D ( 'NONE', #148, #200, #5 ) ;
#30 = DIRECTION ( 'NONE',  ( -1.000000000000000000, -0.000000000000000000, -0.000000000000000000 ) ) ;
#31 = DIRECTION ( 'NONE',  ( -1.000000000000000000, -0.000000000000000000, -0.000000000000000000 ) ) ;
#32 = DIRECTION ( 'NONE',  ( 0.000000000000000000, 0.000000000000000000, -1.000000000000000000 ) ) ;
#33 = PERSON_AND_ORGANIZATION ( #90, #270 ) ;
#34 = CARTESIAN_POINT ( 'NONE',  ( -3.000000000000000444, 0.000000000000000000, -0.1149999999999958833 ) ) ;
#35 = AXIS2_PLACEMENT_3D ( 'NONE', #189, #273, #205 ) ;
#36 = DATE_AND_TIME ( #100, #58 ) ;
#37 = CALENDAR_DATE ( 2023, 7, 6 ) ;
#38 = CLOSED_SHELL ( 'NONE', ( #234, #256, #106, #204, #172, #225, #82, #247 ) ) ;
#39 = FACE_OUTER_BOUND ( 'NONE', #264, .T. ) ;
#40 = DIRECTION ( 'NONE',  ( 0.000000000000000000, 0.000000000000000000, -1.000000000000000000 ) ) ;
#41 = PRODUCT_DEFINITION_FORMATION_WITH_SPECIFIED_SOURCE ( 'ANY', '', #47, .NOT_KNOWN. ) ;
#42 = CC_DESIGN_APPROVAL ( #68, ( #263 ) ) ;
#43 = LOCAL_TIME ( 8, 28, 51.00000000000000000, #231 ) ;
#44 = ORIENTED_EDGE ( 'NONE', *, *, #101, .F. ) ;
#45 = CC_DESIGN_PERSON_AND_ORGANIZATION_ASSIGNMENT ( #52, #209, ( #263 ) ) ;
#46 = EDGE_LOOP ( 'NONE', ( #181, #219 ) ) ;
#47 = PRODUCT ( 'NIL04-006.000-SL', 'NIL04-006.000-SL', '', ( #170 ) ) ;
#48 = VERTEX_POINT ( 'NONE', #50 ) ;
#49 = CARTESIAN_POINT ( 'NONE',  ( -3.000000000000000444, 0.000000000000000000, 0.000000000000000000 ) ) ;
#50 = CARTESIAN_POINT ( 'NONE',  ( 2.990000000000002878, 0.000000000000000000, 0.1250000000000000000 ) ) ;
#51 = CC_DESIGN_APPROVAL ( #144, ( #41 ) ) ;
#52 = PERSON_AND_ORGANIZATION ( #90, #270 ) ;
#53 = LINE ( 'NONE', #226, #136 ) ;
#54 = PERSON_AND_ORGANIZATION ( #90, #270 ) ;
#55 = CONICAL_SURFACE ( 'NONE', #131, 0.1150000000000024475, 0.7853981633974543852 ) ;
#56 = CARTESIAN_POINT ( 'NONE',  ( 3.000000000000000444, 0.000000000000000000, 0.000000000000000000 ) ) ;
#57 = APPROVAL_STATUS ( 'not_yet_approved' ) ;
#58 = LOCAL_TIME ( 8, 28, 51.00000000000000000, #16 ) ;
#59 = DATE_AND_TIME ( #255, #238 ) ;
#60 = AXIS2_PLACEMENT_3D ( 'NONE', #13, #99, #267 ) ;
#61 = CARTESIAN_POINT ( 'NONE',  ( -2.989999999999995772, 0.000000000000000000, 0.000000000000000000 ) ) ;
#62 = APPROVAL_PERSON_ORGANIZATION ( #165, #7, #137 ) ;
#63 = VECTOR ( 'NONE', #266, 39.37007874015748854 ) ;
#64 = EDGE_LOOP ( 'NONE', ( #112, #24, #65, #67 ) ) ;
#65 = ORIENTED_EDGE ( 'NONE', *, *, #89, .T. ) ;
#66 = AXIS2_PLACEMENT_3D ( 'NONE', #208, #70, #214 ) ;
#67 = ORIENTED_EDGE ( 'NONE', *, *, #122, .F. ) ;
#68 = APPROVAL ( #57, 'UNSPECIFIED' ) ;
#69 = ORIENTED_EDGE ( 'NONE', *, *, #149, .F. ) ;
#70 = DIRECTION ( 'NONE',  ( -1.000000000000000000, 0.000000000000000000, 0.000000000000000000 ) ) ;
#71 = DIRECTION ( 'NONE',  ( -1.000000000000000000, 0.000000000000000000, 0.000000000000000000 ) ) ;
#72 = EDGE_CURVE ( 'NONE', #48, #197, #223, .T. ) ;
#73 = APPROVAL_DATE_TIME ( #59, #144 ) ;
#74 = FACE_OUTER_BOUND ( 'NONE', #230, .T. ) ;
#75 = DATE_TIME_ROLE ( 'classification_date' ) ;
#76 = CARTESIAN_POINT ( 'NONE',  ( 3.000000000000000444, 0.000000000000000000, 0.1150000000000024475 ) ) ;
#77 = PERSON_AND_ORGANIZATION_ROLE ( 'design_supplier' ) ;
#78 = CARTESIAN_POINT ( 'NONE',  ( 3.000000000000000444, 0.000000000000000000, 0.000000000000000000 ) ) ;
#79 = CARTESIAN_POINT ( 'NONE',  ( -3.000000000000000444, 0.000000000000000000, 0.000000000000000000 ) ) ;
#80 = CIRCLE ( 'NONE', #29, 0.1250000000000000000 ) ;
#81 = DIRECTION ( 'NONE',  ( -1.000000000000000000, -0.000000000000000000, -0.000000000000000000 ) ) ;
#82 = ADVANCED_FACE ( 'NONE', ( #21 ), #55, .T. ) ;
#83 = FACE_OUTER_BOUND ( 'NONE', #128, .T. ) ;
#84 = AXIS2_PLACEMENT_3D ( 'NONE', #49, #228, #32 ) ;
#85 = VERTEX_POINT ( 'NONE', #115 ) ;
#86 = ORIENTED_EDGE ( 'NONE', *, *, #153, .F. ) ;
#87 = CARTESIAN_POINT ( 'NONE',  ( 3.000000000000000444, 0.000000000000000000, 0.000000000000000000 ) ) ;
#88 = EDGE_LOOP ( 'NONE', ( #262, #103, #27, #3 ) ) ;
#89 = EDGE_CURVE ( 'NONE', #201, #48, #114, .T. ) ;
#90 = PERSON ( 'UNSPECIFIED', 'UNSPECIFIED', 'UNSPECIFIED', ('UNSPECIFIED'), ('UNSPECIFIED'), ('UNSPECIFIED') ) ;
#91 = ORIENTED_EDGE ( 'NONE', *, *, #89, .F. ) ;
#92 = DIRECTION ( 'NONE',  ( 0.000000000000000000, 0.000000000000000000, 1.000000000000000000 ) ) ;
#93 = DIRECTION ( 'NONE',  ( 1.000000000000000000, 0.000000000000000000, 0.000000000000000000 ) ) ;
#94 = PERSON_AND_ORGANIZATION ( #90, #270 ) ;
#95 = CARTESIAN_POINT ( 'NONE',  ( 3.000000000000000444, 0.000000000000000000, 0.1150000000000024475 ) ) ;
#96 = APPROVAL_STATUS ( 'not_yet_approved' ) ;
#97 = DIRECTION ( 'NONE',  ( 0.7071067811865625607, 0.000000000000000000, -0.7071067811865322517 ) ) ;
#98 = DATE_TIME_ROLE ( 'creation_date' ) ;
#99 = DIRECTION ( 'NONE',  ( 1.000000000000000000, -0.000000000000000000, -0.000000000000000000 ) ) ;
#100 = CALENDAR_DATE ( 2023, 7, 6 ) ;
#101 = EDGE_CURVE ( 'NONE', #85, #197, #4, .T. ) ;
#102 = UNCERTAINTY_MEASURE_WITH_UNIT (LENGTH_MEASURE( 1.000000000000000082E-05 ), #8, 'distance_accuracy_value', 'NONE');
#103 = ORIENTED_EDGE ( 'NONE', *, *, #122, .T. ) ;
#104 = ORIENTED_EDGE ( 'NONE', *, *, #196, .F. ) ;
#105 = FACE_OUTER_BOUND ( 'NONE', #151, .T. ) ;
#106 = ADVANCED_FACE ( 'NONE', ( #186 ), #160, .T. ) ;
#107 = AXIS2_PLACEMENT_3D ( 'NONE', #163, #158, #132 ) ;
#108 = VERTEX_POINT ( 'NONE', #213 ) ;
#109 = DIRECTION ( 'NONE',  ( 0.000000000000000000, 0.000000000000000000, -1.000000000000000000 ) ) ;
#110 = EDGE_CURVE ( 'NONE', #125, #239, #139, .T. ) ;
#111 = DIRECTION ( 'NONE',  ( 0.000000000000000000, 0.000000000000000000, -1.000000000000000000 ) ) ;
#112 = ORIENTED_EDGE ( 'NONE', *, *, #110, .F. ) ;
#113 = CALENDAR_DATE ( 2023, 7, 6 ) ;
#114 = LINE ( 'NONE', #95, #63 ) ;
#115 = CARTESIAN_POINT ( 'NONE',  ( -2.989999999999995772, 1.530808498934191201E-17, -0.1250000000000000000 ) ) ;
#116 = CC_DESIGN_PERSON_AND_ORGANIZATION_ASSIGNMENT ( #54, #227, ( #243 ) ) ;
#117 = PERSON_AND_ORGANIZATION ( #90, #270 ) ;
#118 = LINE ( 'NONE', #175, #167 ) ;
#119 = DATE_AND_TIME ( #37, #43 ) ;
#120 = AXIS2_PLACEMENT_3D ( 'NONE', #211, #183, #109 ) ;
#121 = EDGE_CURVE ( 'NONE', #197, #85, #11, .T. ) ;
#122 = EDGE_CURVE ( 'NONE', #239, #48, #203, .T. ) ;
#123 = FACE_OUTER_BOUND ( 'NONE', #46, .T. ) ;
#124 = ORIENTED_EDGE ( 'NONE', *, *, #196, .T. ) ;
#125 = VERTEX_POINT ( 'NONE', #272 ) ;
#126 = ORIENTED_EDGE ( 'NONE', *, *, #110, .T. ) ;
#127 = PRODUCT_RELATED_PRODUCT_CATEGORY ( 'detail', '', ( #47 ) ) ;
#128 = EDGE_LOOP ( 'NONE', ( #199, #126, #179, #91 ) ) ;
#129 = CIRCLE ( 'NONE', #107, 0.1149999999999958833 ) ;
#130 = CARTESIAN_POINT ( 'NONE',  ( -2.989999999999995772, 0.000000000000000000, -0.1250000000000000000 ) ) ;
#131 = AXIS2_PLACEMENT_3D ( 'NONE', #56, #71, #275 ) ;
#132 = DIRECTION ( 'NONE',  ( 0.000000000000000000, 0.000000000000000000, -1.000000000000000000 ) ) ;
#133 = DIRECTION ( 'NONE',  ( 1.000000000000000000, -0.000000000000000000, -0.000000000000000000 ) ) ;
#134 = PERSON_AND_ORGANIZATION_ROLE ( 'creator' ) ;
#135 = DIRECTION ( 'NONE',  ( 0.7071067811865625607, 8.659560562354747969E-17, 0.7071067811865322517 ) ) ;
#136 = VECTOR ( 'NONE', #135, 39.37007874015748854 ) ;
#137 = APPROVAL_ROLE ( '' ) ;
#138 = EDGE_CURVE ( 'NONE', #125, #201, #278, .T. ) ;
#139 = LINE ( 'NONE', #206, #218 ) ;
#140 = SHAPE_DEFINITION_REPRESENTATION ( #240, #220 ) ;
#141 =( LENGTH_UNIT ( ) NAMED_UNIT ( * ) SI_UNIT ( $, .METRE. ) );
#142 = APPROVAL_ROLE ( '' ) ;
#143 = CARTESIAN_POINT ( 'NONE',  ( 2.990000000000002878, 1.530808498934191201E-17, -0.1250000000000000000 ) ) ;
#144 = APPROVAL ( #96, 'UNSPECIFIED' ) ;
#145 = AXIS2_PLACEMENT_3D ( 'NONE', #236, #173, #216 ) ;
#146 = DIRECTION ( 'NONE',  ( 0.000000000000000000, 0.000000000000000000, 1.000000000000000000 ) ) ;
#147 = APPROVAL_PERSON_ORGANIZATION ( #276, #68, #142 ) ;
#148 = CARTESIAN_POINT ( 'NONE',  ( 2.990000000000002878, 0.000000000000000000, 0.000000000000000000 ) ) ;
#149 = EDGE_CURVE ( 'NONE', #108, #197, #53, .T. ) ;
#150 = APPLICATION_CONTEXT ( 'configuration controlled 3d designs of mechanical parts and assemblies' ) ;
#151 = EDGE_LOOP ( 'NONE', ( #86, #221, #44, #104 ) ) ;
#152 = CC_DESIGN_DATE_AND_TIME_ASSIGNMENT ( #212, #75, ( #243 ) ) ;
#153 = EDGE_CURVE ( 'NONE', #108, #12, #129, .T. ) ;
#154 = AXIS2_PLACEMENT_3D ( 'NONE', #78, #190, #15 ) ;
#155 = EDGE_LOOP ( 'NONE', ( #265, #9, #180, #156 ) ) ;
#156 = ORIENTED_EDGE ( 'NONE', *, *, #72, .F. ) ;
#157 = ORIENTED_EDGE ( 'NONE', *, *, #138, .T. ) ;
#158 = DIRECTION ( 'NONE',  ( -1.000000000000000000, -0.000000000000000000, -0.000000000000000000 ) ) ;
#159 = MANIFOLD_SOLID_BREP ( 'Chamfer1', #38 ) ;
#160 = CYLINDRICAL_SURFACE ( 'NONE', #241, 0.1250000000000000000 ) ;
#161 = DATE_AND_TIME ( #187, #23 ) ;
#162 = CC_DESIGN_APPROVAL ( #7, ( #243 ) ) ;
#163 = CARTESIAN_POINT ( 'NONE',  ( -3.000000000000000444, 0.000000000000000000, 0.000000000000000000 ) ) ;
#164 =( NAMED_UNIT ( * ) PLANE_ANGLE_UNIT ( ) SI_UNIT ( $, .RADIAN. ) );
#165 = PERSON_AND_ORGANIZATION ( #90, #270 ) ;
#166 = CYLINDRICAL_SURFACE ( 'NONE', #191, 0.1250000000000000000 ) ;
#167 = VECTOR ( 'NONE', #81, 39.37007874015748143 ) ;
#168 = COORDINATED_UNIVERSAL_TIME_OFFSET ( 5, 0, .BEHIND. ) ;
#169 = CARTESIAN_POINT ( 'NONE',  ( 3.000000000000000444, 0.000000000000000000, 0.000000000000000000 ) ) ;
#170 = MECHANICAL_CONTEXT ( 'NONE', #150, 'mechanical' ) ;
#171 = APPLICATION_CONTEXT ( 'configuration controlled 3d designs of mechanical parts and assemblies' ) ;
#172 = ADVANCED_FACE ( 'NONE', ( #74 ), #224, .T. ) ;
#173 = DIRECTION ( 'NONE',  ( 1.000000000000000000, -0.000000000000000000, -0.000000000000000000 ) ) ;
#174 = AXIS2_PLACEMENT_3D ( 'NONE', #61, #195, #1 ) ;
#175 = CARTESIAN_POINT ( 'NONE',  ( 3.000000000000000444, 1.530808498934191201E-17, -0.1250000000000000000 ) ) ;
#176 = CC_DESIGN_PERSON_AND_ORGANIZATION_ASSIGNMENT ( #117, #77, ( #41 ) ) ;
#177 = ORIENTED_EDGE ( 'NONE', *, *, #121, .F. ) ;
#178 = EDGE_CURVE ( 'NONE', #12, #108, #253, .T. ) ;
#179 = ORIENTED_EDGE ( 'NONE', *, *, #274, .F. ) ;
#180 = ORIENTED_EDGE ( 'NONE', *, *, #101, .T. ) ;
#181 = ORIENTED_EDGE ( 'NONE', *, *, #178, .T. ) ;
#182 = CARTESIAN_POINT ( 'NONE',  ( 3.000000000000000444, 0.000000000000000000, 0.000000000000000000 ) ) ;
#183 = DIRECTION ( 'NONE',  ( 1.000000000000000000, 0.000000000000000000, 0.000000000000000000 ) ) ;
#184 = CIRCLE ( 'NONE', #120, 0.1150000000000024475 ) ;
#185 = COORDINATED_UNIVERSAL_TIME_OFFSET ( 5, 0, .BEHIND. ) ;
#186 = FACE_OUTER_BOUND ( 'NONE', #155, .T. ) ;
#187 = CALENDAR_DATE ( 2023, 7, 6 ) ;
#188 = CARTESIAN_POINT ( 'NONE',  ( -2.989999999999995772, 0.000000000000000000, 0.1250000000000000000 ) ) ;
#189 = CARTESIAN_POINT ( 'NONE',  ( 0.000000000000000000, 0.000000000000000000, 0.000000000000000000 ) ) ;
#190 = DIRECTION ( 'NONE',  ( 1.000000000000000000, 0.000000000000000000, 0.000000000000000000 ) ) ;
#191 = AXIS2_PLACEMENT_3D ( 'NONE', #254, #232, #146 ) ;
#192 = PLANE ( 'NONE',  #245 ) ;
#193 = APPROVAL_ROLE ( '' ) ;
#194 = AXIS2_PLACEMENT_3D ( 'NONE', #269, #133, #111 ) ;
#195 = DIRECTION ( 'NONE',  ( 1.000000000000000000, -0.000000000000000000, -0.000000000000000000 ) ) ;
#196 = EDGE_CURVE ( 'NONE', #12, #85, #17, .T. ) ;
#197 = VERTEX_POINT ( 'NONE', #188 ) ;
#198 = CC_DESIGN_DATE_AND_TIME_ASSIGNMENT ( #36, #98, ( #263 ) ) ;
#199 = ORIENTED_EDGE ( 'NONE', *, *, #138, .F. ) ;
#200 = DIRECTION ( 'NONE',  ( -1.000000000000000000, 0.000000000000000000, 0.000000000000000000 ) ) ;
#201 = VERTEX_POINT ( 'NONE', #76 ) ;
#202 = CONICAL_SURFACE ( 'NONE', #145, 0.1250000000000000000, 0.7853981633974269627 ) ;
#203 = CIRCLE ( 'NONE', #66, 0.1250000000000000000 ) ;
#204 = ADVANCED_FACE ( 'NONE', ( #28 ), #166, .T. ) ;
#205 = DIRECTION ( 'NONE',  ( 1.000000000000000000, 0.000000000000000000, 0.000000000000000000 ) ) ;
#206 = CARTESIAN_POINT ( 'NONE',  ( 3.000000000000000444, 1.408343819019486350E-17, -0.1150000000000024475 ) ) ;
#207 = APPROVAL_PERSON_ORGANIZATION ( #215, #144, #193 ) ;
#208 = CARTESIAN_POINT ( 'NONE',  ( 2.990000000000002878, 0.000000000000000000, 0.000000000000000000 ) ) ;
#209 = PERSON_AND_ORGANIZATION_ROLE ( 'creator' ) ;
#210 = EDGE_CURVE ( 'NONE', #239, #85, #118, .T. ) ;
#211 = CARTESIAN_POINT ( 'NONE',  ( 3.000000000000000444, 0.000000000000000000, 0.000000000000000000 ) ) ;
#212 = DATE_AND_TIME ( #113, #250 ) ;
#213 = CARTESIAN_POINT ( 'NONE',  ( -3.000000000000000444, 1.469576158976798716E-17, 0.1149999999999958833 ) ) ;
#214 = DIRECTION ( 'NONE',  ( 0.000000000000000000, 0.000000000000000000, -1.000000000000000000 ) ) ;
#215 = PERSON_AND_ORGANIZATION ( #90, #270 ) ;
#216 = DIRECTION ( 'NONE',  ( 0.000000000000000000, 0.000000000000000000, -1.000000000000000000 ) ) ;
#217 = ORIENTED_EDGE ( 'NONE', *, *, #26, .T. ) ;
#218 = VECTOR ( 'NONE', #248, 39.37007874015748854 ) ;
#219 = ORIENTED_EDGE ( 'NONE', *, *, #153, .T. ) ;
#220 = ADVANCED_BREP_SHAPE_REPRESENTATION ( 'NIL04-006.000-SL', ( #159, #35 ), #2 ) ;
#221 = ORIENTED_EDGE ( 'NONE', *, *, #149, .T. ) ;
#222 = CC_DESIGN_PERSON_AND_ORGANIZATION_ASSIGNMENT ( #33, #257, ( #47 ) ) ;
#223 = LINE ( 'NONE', #246, #237 ) ;
#224 = PLANE ( 'NONE',  #260 ) ;
#225 = ADVANCED_FACE ( 'NONE', ( #123 ), #192, .F. ) ;
#226 = CARTESIAN_POINT ( 'NONE',  ( -2.989999999999995772, 1.530808498934191509E-17, 0.1250000000000000000 ) ) ;
#227 = PERSON_AND_ORGANIZATION_ROLE ( 'classification_officer' ) ;
#228 = DIRECTION ( 'NONE',  ( -1.000000000000000000, -0.000000000000000000, -0.000000000000000000 ) ) ;
#229 = APPROVAL_DATE_TIME ( #119, #7 ) ;
#230 = EDGE_LOOP ( 'NONE', ( #217, #157 ) ) ;
#231 = COORDINATED_UNIVERSAL_TIME_OFFSET ( 5, 0, .BEHIND. ) ;
#232 = DIRECTION ( 'NONE',  ( -1.000000000000000000, -0.000000000000000000, -0.000000000000000000 ) ) ;
#233 = CONICAL_SURFACE ( 'NONE', #174, 0.1250000000000000000, 0.7853981633974269627 ) ;
#234 = ADVANCED_FACE ( 'NONE', ( #105 ), #202, .T. ) ;
#235 = AXIS2_PLACEMENT_3D ( 'NONE', #87, #261, #25 ) ;
#236 = CARTESIAN_POINT ( 'NONE',  ( -2.989999999999995772, 0.000000000000000000, 0.000000000000000000 ) ) ;
#237 = VECTOR ( 'NONE', #30, 39.37007874015748143 ) ;
#238 = LOCAL_TIME ( 8, 28, 51.00000000000000000, #185 ) ;
#239 = VERTEX_POINT ( 'NONE', #143 ) ;
#240 = PRODUCT_DEFINITION_SHAPE ( 'NONE', 'NONE',  #263 ) ;
#241 = AXIS2_PLACEMENT_3D ( 'NONE', #182, #31, #92 ) ;
#242 = LENGTH_MEASURE_WITH_UNIT ( LENGTH_MEASURE( 0.02539999999999999897 ), #141 );
#243 = SECURITY_CLASSIFICATION ( '', '', #268 ) ;
#244 = ORIENTED_EDGE ( 'NONE', *, *, #178, .F. ) ;
#245 = AXIS2_PLACEMENT_3D ( 'NONE', #79, #258, #40 ) ;
#246 = CARTESIAN_POINT ( 'NONE',  ( 3.000000000000000444, 0.000000000000000000, 0.1250000000000000000 ) ) ;
#247 = ADVANCED_FACE ( 'NONE', ( #39 ), #233, .T. ) ;
#248 = DIRECTION ( 'NONE',  ( -0.7071067811865431318, 8.659560562354984627E-17, -0.7071067811865516806 ) ) ;
#249 = APPLICATION_PROTOCOL_DEFINITION ( 'international standard', 'config_control_design', 1994, #171 ) ;
#250 = LOCAL_TIME ( 8, 28, 51.00000000000000000, #168 ) ;
#251 = DIRECTION ( 'NONE',  ( 0.000000000000000000, 0.000000000000000000, -1.000000000000000000 ) ) ;
#252 = APPROVAL_STATUS ( 'not_yet_approved' ) ;
#253 = CIRCLE ( 'NONE', #84, 0.1149999999999958833 ) ;
#254 = CARTESIAN_POINT ( 'NONE',  ( 3.000000000000000444, 0.000000000000000000, 0.000000000000000000 ) ) ;
#255 = CALENDAR_DATE ( 2023, 7, 6 ) ;
#256 = ADVANCED_FACE ( 'NONE', ( #83 ), #6, .T. ) ;
#257 = PERSON_AND_ORGANIZATION_ROLE ( 'design_owner' ) ;
#258 = DIRECTION ( 'NONE',  ( 1.000000000000000000, 0.000000000000000000, 0.000000000000000000 ) ) ;
#259 = DESIGN_CONTEXT ( 'detailed design', #171, 'design' ) ;
#260 = AXIS2_PLACEMENT_3D ( 'NONE', #169, #93, #251 ) ;
#261 = DIRECTION ( 'NONE',  ( -1.000000000000000000, 0.000000000000000000, 0.000000000000000000 ) ) ;
#262 = ORIENTED_EDGE ( 'NONE', *, *, #210, .F. ) ;
#263 = PRODUCT_DEFINITION ( 'UNKNOWN', '', #41, #259 ) ;
#264 = EDGE_LOOP ( 'NONE', ( #69, #244, #124, #177 ) ) ;
#265 = ORIENTED_EDGE ( 'NONE', *, *, #274, .T. ) ;
#266 = DIRECTION ( 'NONE',  ( -0.7071067811865431318, 0.000000000000000000, 0.7071067811865516806 ) ) ;
#267 = DIRECTION ( 'NONE',  ( 0.000000000000000000, 0.000000000000000000, -1.000000000000000000 ) ) ;
#268 = SECURITY_CLASSIFICATION_LEVEL ( 'unclassified' ) ;
#269 = CARTESIAN_POINT ( 'NONE',  ( -2.989999999999995772, 0.000000000000000000, 0.000000000000000000 ) ) ;
#270 = ORGANIZATION ( 'UNSPECIFIED', 'UNSPECIFIED', '' ) ;
#271 = APPROVAL_DATE_TIME ( #161, #68 ) ;
#272 = CARTESIAN_POINT ( 'NONE',  ( 3.000000000000000444, 1.469576158976838775E-17, -0.1150000000000024475 ) ) ;
#273 = DIRECTION ( 'NONE',  ( 0.000000000000000000, 0.000000000000000000, 1.000000000000000000 ) ) ;
#274 = EDGE_CURVE ( 'NONE', #48, #239, #80, .T. ) ;
#275 = DIRECTION ( 'NONE',  ( 0.000000000000000000, 0.000000000000000000, 1.000000000000000000 ) ) ;
#276 = PERSON_AND_ORGANIZATION ( #90, #270 ) ;
#277 = CC_DESIGN_PERSON_AND_ORGANIZATION_ASSIGNMENT ( #94, #134, ( #41 ) ) ;
#278 = CIRCLE ( 'NONE', #154, 0.1150000000000024475 ) ;
ENDSEC;
END-ISO-10303-21;
