ISO-10303-21;
HEADER;
FILE_DESCRIPTION (( 'STEP AP203' ),
    '1' );
FILE_NAME ('LVH3.00.5060(500x600).STEP',
    '2024-03-26T10:18:19',
    ( '' ),
    ( '' ),
    'SwSTEP 2.0',
    'SolidWorks 2022',
    '' );
FILE_SCHEMA (( 'CONFIG_CONTROL_DESIGN' ));
ENDSEC;

DATA;
#1 = DIRECTION ( 'NONE',  ( 0.000000000000000000, 0.000000000000000000, -1.000000000000000000 ) ) ;
#2 = VECTOR ( 'NONE', #217, 1000.000000000000000 ) ;
#3 = ORIENTED_EDGE ( 'NONE', *, *, #127, .F. ) ;
#4 = PERSON_AND_ORGANIZATION ( #69, #111 ) ;
#5 = DESIGN_CONTEXT ( 'detailed design', #204, 'design' ) ;
#6 = DATE_AND_TIME ( #30, #218 ) ;
#7 = ORIENTED_EDGE ( 'NONE', *, *, #123, .F. ) ;
#8 = APPROVAL_PERSON_ORGANIZATION ( #120, #62, #61 ) ;
#9 = APPROVAL ( #75, 'BELÝRTÝLMEMÝÞ' ) ;
#10 = PERSON_AND_ORGANIZATION ( #69, #111 ) ;
#11 = DIRECTION ( 'NONE',  ( 1.000000000000000000, 2.220446049250313574E-16, 0.000000000000000000 ) ) ;
#12 = DIRECTION ( 'NONE',  ( 1.000000000000000000, 1.110223024625157033E-16, -0.000000000000000000 ) ) ;
#13 = ORIENTED_EDGE ( 'NONE', *, *, #221, .F. ) ;
#14 = VERTEX_POINT ( 'NONE', #196 ) ;
#15 = LOCAL_TIME ( 13, 18, 19.00000000000000000, #201 ) ;
#16 = DIRECTION ( 'NONE',  ( -0.000000000000000000, -0.000000000000000000, -1.000000000000000000 ) ) ;
#17 = DIRECTION ( 'NONE',  ( -1.000000000000000000, -1.110223024625157033E-16, 0.000000000000000000 ) ) ;
#18 = PERSON_AND_ORGANIZATION ( #69, #111 ) ;
#19 = PRODUCT_DEFINITION_SHAPE ( 'NONE', 'NONE',  #70 ) ;
#20 = DIRECTION ( 'NONE',  ( -1.000000000000000000, 0.000000000000000000, -0.000000000000000000 ) ) ;
#21 = DIRECTION ( 'NONE',  ( -0.000000000000000000, -0.000000000000000000, -1.000000000000000000 ) ) ;
#22 = PERSON_AND_ORGANIZATION_ROLE ( 'design_owner' ) ;
#23 = COORDINATED_UNIVERSAL_TIME_OFFSET ( 3, 0, .AHEAD. ) ;
#24 = AXIS2_PLACEMENT_3D ( 'NONE', #210, #89, #141 ) ;
#25 = ORIENTED_EDGE ( 'NONE', *, *, #215, .T. ) ;
#26 = ORIENTED_EDGE ( 'NONE', *, *, #170, .F. ) ;
#27 = ORIENTED_EDGE ( 'NONE', *, *, #78, .F. ) ;
#28 = COORDINATED_UNIVERSAL_TIME_OFFSET ( 3, 0, .AHEAD. ) ;
#29 = EDGE_LOOP ( 'NONE', ( #227, #67, #104, #151 ) ) ;
#30 = CALENDAR_DATE ( 2024, 26, 3 ) ;
#31 = DIRECTION ( 'NONE',  ( -0.000000000000000000, -0.000000000000000000, -1.000000000000000000 ) ) ;
#32 = CARTESIAN_POINT ( 'NONE',  ( -249.9999999999997726, -300.0000000000000000, 3.000000000000000000 ) ) ;
#33 = FACE_OUTER_BOUND ( 'NONE', #138, .T. ) ;
#34 = CARTESIAN_POINT ( 'NONE',  ( -249.9999999999999147, 300.0000000000000000, 0.000000000000000000 ) ) ;
#35 = EDGE_LOOP ( 'NONE', ( #197, #140, #13, #88 ) ) ;
#36 = CC_DESIGN_APPROVAL ( #9, ( #70 ) ) ;
#37 = CARTESIAN_POINT ( 'NONE',  ( 0.000000000000000000, 0.000000000000000000, 0.000000000000000000 ) ) ;
#38 = CALENDAR_DATE ( 2024, 26, 3 ) ;
#39 = DIRECTION ( 'NONE',  ( -9.251858538542970348E-17, 1.000000000000000000, -0.000000000000000000 ) ) ;
#40 = CARTESIAN_POINT ( 'NONE',  ( 250.0000000000000000, 300.0000000000001137, 3.000000000000000000 ) ) ;
#41 = EDGE_CURVE ( 'NONE', #102, #223, #68, .T. ) ;
#42 = ADVANCED_FACE ( 'NONE', ( #179 ), #145, .F. ) ;
#43 = ORIENTED_EDGE ( 'NONE', *, *, #123, .T. ) ;
#44 = CLOSED_SHELL ( 'NONE', ( #42, #188, #103, #82, #235, #51 ) ) ;
#45 = CC_DESIGN_DATE_AND_TIME_ASSIGNMENT ( #222, #155, ( #226 ) ) ;
#46 = ORIENTED_EDGE ( 'NONE', *, *, #173, .F. ) ;
#47 = CARTESIAN_POINT ( 'NONE',  ( 250.0000000000000000, 300.0000000000001137, 3.000000000000000000 ) ) ;
#48 = CARTESIAN_POINT ( 'NONE',  ( 250.0000000000000568, -299.9999999999999432, 0.000000000000000000 ) ) ;
#49 = AXIS2_PLACEMENT_3D ( 'NONE', #50, #109, #211 ) ;
#50 = CARTESIAN_POINT ( 'NONE',  ( 0.000000000000000000, 0.000000000000000000, 0.000000000000000000 ) ) ;
#51 = ADVANCED_FACE ( 'NONE', ( #33 ), #92, .T. ) ;
#52 = DIRECTION ( 'NONE',  ( 1.000000000000000000, 1.110223024625157033E-16, -0.000000000000000000 ) ) ;
#53 =( NAMED_UNIT ( * ) PLANE_ANGLE_UNIT ( ) SI_UNIT ( $, .RADIAN. ) );
#54 = VECTOR ( 'NONE', #237, 1000.000000000000000 ) ;
#55 = DIRECTION ( 'NONE',  ( 1.000000000000000000, 0.000000000000000000, 0.000000000000000000 ) ) ;
#56 = LINE ( 'NONE', #114, #54 ) ;
#57 = LINE ( 'NONE', #112, #208 ) ;
#58 = APPROVAL ( #137, 'BELÝRTÝLMEMÝÞ' ) ;
#59 = CARTESIAN_POINT ( 'NONE',  ( -249.9999999999999147, 300.0000000000000000, 0.000000000000000000 ) ) ;
#60 = COORDINATED_UNIVERSAL_TIME_OFFSET ( 3, 0, .AHEAD. ) ;
#61 = APPROVAL_ROLE ( '' ) ;
#62 = APPROVAL ( #83, 'BELÝRTÝLMEMÝÞ' ) ;
#63 = PERSON_AND_ORGANIZATION_ROLE ( 'classification_officer' ) ;
#64 = EDGE_LOOP ( 'NONE', ( #194, #3, #7, #135 ) ) ;
#65 = DATE_AND_TIME ( #100, #199 ) ;
#66 = APPROVAL_PERSON_ORGANIZATION ( #10, #58, #206 ) ;
#67 = ORIENTED_EDGE ( 'NONE', *, *, #144, .F. ) ;
#68 = LINE ( 'NONE', #159, #142 ) ;
#69 = PERSON ( 'BELÝRTÝLMEMÝÞ', 'BELÝRTÝLMEMÝÞ', 'BELÝRTÝLMEMÝÞ', ('BELÝRTÝLMEMÝÞ'), ('BELÝRTÝLMEMÝÞ'), ('BELÝRTÝLMEMÝÞ') ) ;
#70 = PRODUCT_DEFINITION ( 'BÝLÝNMEYEN', '', #134, #5 ) ;
#71 = LINE ( 'NONE', #93, #230 ) ;
#72 = CC_DESIGN_SECURITY_CLASSIFICATION ( #226, ( #134 ) ) ;
#73 = DIRECTION ( 'NONE',  ( 2.220446049250313574E-16, -1.000000000000000000, 0.000000000000000000 ) ) ;
#74 = LINE ( 'NONE', #229, #212 ) ;
#75 = APPROVAL_STATUS ( 'not_yet_approved' ) ;
#76 = MECHANICAL_CONTEXT ( 'NONE', #182, 'mechanical' ) ;
#77 = DIRECTION ( 'NONE',  ( -1.000000000000000000, -2.220446049250313574E-16, 0.000000000000000000 ) ) ;
#78 = EDGE_CURVE ( 'NONE', #223, #85, #128, .T. ) ;
#79 = VECTOR ( 'NONE', #175, 1000.000000000000000 ) ;
#80 = CALENDAR_DATE ( 2024, 26, 3 ) ;
#81 = UNCERTAINTY_MEASURE_WITH_UNIT (LENGTH_MEASURE( 1.000000000000000082E-05 ), #129, 'distance_accuracy_value', 'NONE');
#82 = ADVANCED_FACE ( 'NONE', ( #124 ), #176, .F. ) ;
#83 = APPROVAL_STATUS ( 'not_yet_approved' ) ;
#84 = AXIS2_PLACEMENT_3D ( 'NONE', #195, #231, #160 ) ;
#85 = VERTEX_POINT ( 'NONE', #122 ) ;
#86 = COORDINATED_UNIVERSAL_TIME_OFFSET ( 3, 0, .AHEAD. ) ;
#87 = EDGE_CURVE ( 'NONE', #85, #14, #163, .T. ) ;
#88 = ORIENTED_EDGE ( 'NONE', *, *, #144, .T. ) ;
#89 = DIRECTION ( 'NONE',  ( 1.000000000000000000, 2.312964634635742957E-16, -0.000000000000000000 ) ) ;
#90 = CC_DESIGN_PERSON_AND_ORGANIZATION_ASSIGNMENT ( #171, #99, ( #134 ) ) ;
#91 = PLANE ( 'NONE',  #84 ) ;
#92 = PLANE ( 'NONE',  #49 ) ;
#93 = CARTESIAN_POINT ( 'NONE',  ( 250.0000000000000568, -299.9999999999999432, 3.000000000000000000 ) ) ;
#94 = CC_DESIGN_PERSON_AND_ORGANIZATION_ASSIGNMENT ( #18, #96, ( #70 ) ) ;
#95 = PERSON_AND_ORGANIZATION ( #69, #111 ) ;
#96 = PERSON_AND_ORGANIZATION_ROLE ( 'creator' ) ;
#97 = CARTESIAN_POINT ( 'NONE',  ( 250.0000000000000000, 300.0000000000001137, 3.000000000000000000 ) ) ;
#98 = VECTOR ( 'NONE', #12, 1000.000000000000000 ) ;
#99 = PERSON_AND_ORGANIZATION_ROLE ( 'design_supplier' ) ;
#100 = CALENDAR_DATE ( 2024, 26, 3 ) ;
#101 = ORIENTED_EDGE ( 'NONE', *, *, #161, .F. ) ;
#102 = VERTEX_POINT ( 'NONE', #158 ) ;
#103 = ADVANCED_FACE ( 'NONE', ( #209 ), #91, .F. ) ;
#104 = ORIENTED_EDGE ( 'NONE', *, *, #215, .F. ) ;
#105 = LINE ( 'NONE', #174, #79 ) ;
#106 = LINE ( 'NONE', #143, #162 ) ;
#107 = CC_DESIGN_APPROVAL ( #62, ( #226 ) ) ;
#108 = VERTEX_POINT ( 'NONE', #32 ) ;
#109 = DIRECTION ( 'NONE',  ( 0.000000000000000000, 0.000000000000000000, -1.000000000000000000 ) ) ;
#110 = CARTESIAN_POINT ( 'NONE',  ( -249.9999999999999147, 300.0000000000000000, 3.000000000000000000 ) ) ;
#111 = ORGANIZATION ( 'BELÝRTÝLMEMÝÞ', 'BELÝRTÝLMEMÝÞ', '' ) ;
#112 = CARTESIAN_POINT ( 'NONE',  ( 250.0000000000000000, 300.0000000000001137, 3.000000000000000000 ) ) ;
#113 = DATE_AND_TIME ( #38, #15 ) ;
#114 = CARTESIAN_POINT ( 'NONE',  ( 250.0000000000000000, 300.0000000000001137, 0.000000000000000000 ) ) ;
#115 = EDGE_CURVE ( 'NONE', #108, #85, #74, .T. ) ;
#116 = APPROVAL_PERSON_ORGANIZATION ( #95, #9, #219 ) ;
#117 = CARTESIAN_POINT ( 'NONE',  ( 250.0000000000000568, -299.9999999999999432, 3.000000000000000000 ) ) ;
#118 = CC_DESIGN_PERSON_AND_ORGANIZATION_ASSIGNMENT ( #4, #63, ( #226 ) ) ;
#119 = PERSON_AND_ORGANIZATION ( #69, #111 ) ;
#120 = PERSON_AND_ORGANIZATION ( #69, #111 ) ;
#121 = CALENDAR_DATE ( 2024, 26, 3 ) ;
#122 = CARTESIAN_POINT ( 'NONE',  ( -249.9999999999997726, -300.0000000000000000, 0.000000000000000000 ) ) ;
#123 = EDGE_CURVE ( 'NONE', #108, #154, #71, .T. ) ;
#124 = FACE_OUTER_BOUND ( 'NONE', #29, .T. ) ;
#125 = ORIENTED_EDGE ( 'NONE', *, *, #87, .F. ) ;
#126 = VERTEX_POINT ( 'NONE', #110 ) ;
#127 = EDGE_CURVE ( 'NONE', #154, #14, #106, .T. ) ;
#128 = LINE ( 'NONE', #34, #192 ) ;
#129 =( LENGTH_UNIT ( ) NAMED_UNIT ( * ) SI_UNIT ( .MILLI., .METRE. ) );
#130 = LOCAL_TIME ( 13, 18, 19.00000000000000000, #60 ) ;
#131 = APPLICATION_PROTOCOL_DEFINITION ( 'international standard', 'config_control_design', 1994, #204 ) ;
#132 = LINE ( 'NONE', #183, #187 ) ;
#133 = CC_DESIGN_PERSON_AND_ORGANIZATION_ASSIGNMENT ( #203, #22, ( #189 ) ) ;
#134 = PRODUCT_DEFINITION_FORMATION_WITH_SPECIFIED_SOURCE ( 'HERHANGÝ', '', #189, .NOT_KNOWN. ) ;
#135 = ORIENTED_EDGE ( 'NONE', *, *, #115, .T. ) ;
#136 = ORIENTED_EDGE ( 'NONE', *, *, #221, .T. ) ;
#137 = APPROVAL_STATUS ( 'not_yet_approved' ) ;
#138 = EDGE_LOOP ( 'NONE', ( #27, #228, #46, #125 ) ) ;
#139 = AXIS2_PLACEMENT_3D ( 'NONE', #37, #185, #55 ) ;
#140 = ORIENTED_EDGE ( 'NONE', *, *, #115, .F. ) ;
#141 = DIRECTION ( 'NONE',  ( -2.312964634635742957E-16, 1.000000000000000000, 0.000000000000000000 ) ) ;
#142 = VECTOR ( 'NONE', #164, 1000.000000000000000 ) ;
#143 = CARTESIAN_POINT ( 'NONE',  ( 250.0000000000000568, -299.9999999999999432, 3.000000000000000000 ) ) ;
#144 = EDGE_CURVE ( 'NONE', #126, #223, #105, .T. ) ;
#145 = PLANE ( 'NONE',  #24 ) ;
#146 = PLANE ( 'NONE',  #148 ) ;
#147 = APPLICATION_PROTOCOL_DEFINITION ( 'international standard', 'config_control_design', 1994, #182 ) ;
#148 = AXIS2_PLACEMENT_3D ( 'NONE', #180, #165, #17 ) ;
#149 = FACE_OUTER_BOUND ( 'NONE', #64, .T. ) ;
#150 = APPROVAL_DATE_TIME ( #6, #62 ) ;
#151 = ORIENTED_EDGE ( 'NONE', *, *, #170, .T. ) ;
#152 = AXIS2_PLACEMENT_3D ( 'NONE', #202, #1, #20 ) ;
#153 = CC_DESIGN_DATE_AND_TIME_ASSIGNMENT ( #193, #225, ( #70 ) ) ;
#154 = VERTEX_POINT ( 'NONE', #117 ) ;
#155 = DATE_TIME_ROLE ( 'classification_date' ) ;
#156 = CC_DESIGN_PERSON_AND_ORGANIZATION_ASSIGNMENT ( #119, #191, ( #134 ) ) ;
#157 = AXIS2_PLACEMENT_3D ( 'NONE', #47, #73, #11 ) ;
#158 = CARTESIAN_POINT ( 'NONE',  ( 250.0000000000000000, 300.0000000000001137, 0.000000000000000000 ) ) ;
#159 = CARTESIAN_POINT ( 'NONE',  ( 250.0000000000000000, 300.0000000000001137, 0.000000000000000000 ) ) ;
#160 = DIRECTION ( 'NONE',  ( 9.251858538542969116E-17, -1.000000000000000000, 0.000000000000000000 ) ) ;
#161 = EDGE_CURVE ( 'NONE', #154, #177, #233, .T. ) ;
#162 = VECTOR ( 'NONE', #31, 1000.000000000000000 ) ;
#163 = LINE ( 'NONE', #48, #98 ) ;
#164 = DIRECTION ( 'NONE',  ( -1.000000000000000000, -2.220446049250313574E-16, 0.000000000000000000 ) ) ;
#165 = DIRECTION ( 'NONE',  ( -1.110223024625157033E-16, 1.000000000000000000, 0.000000000000000000 ) ) ;
#166 = PRODUCT_RELATED_PRODUCT_CATEGORY ( 'detail', '', ( #189 ) ) ;
#167 = FACE_OUTER_BOUND ( 'NONE', #198, .T. ) ;
#168 = LOCAL_TIME ( 13, 18, 19.00000000000000000, #86 ) ;
#169 = APPROVAL_DATE_TIME ( #65, #58 ) ;
#170 = EDGE_CURVE ( 'NONE', #177, #102, #57, .T. ) ;
#171 = PERSON_AND_ORGANIZATION ( #69, #111 ) ;
#172 = EDGE_LOOP ( 'NONE', ( #213, #26, #101, #190 ) ) ;
#173 = EDGE_CURVE ( 'NONE', #14, #102, #56, .T. ) ;
#174 = CARTESIAN_POINT ( 'NONE',  ( -249.9999999999999147, 300.0000000000000000, 3.000000000000000000 ) ) ;
#175 = DIRECTION ( 'NONE',  ( -0.000000000000000000, -0.000000000000000000, -1.000000000000000000 ) ) ;
#176 = PLANE ( 'NONE',  #157 ) ;
#177 = VERTEX_POINT ( 'NONE', #97 ) ;
#178 = VECTOR ( 'NONE', #39, 1000.000000000000000 ) ;
#179 = FACE_OUTER_BOUND ( 'NONE', #35, .T. ) ;
#180 = CARTESIAN_POINT ( 'NONE',  ( 250.0000000000000568, -299.9999999999999432, 3.000000000000000000 ) ) ;
#181 = APPROVAL_DATE_TIME ( #113, #9 ) ;
#182 = APPLICATION_CONTEXT ( 'configuration controlled 3d designs of mechanical parts and assemblies' ) ;
#183 = CARTESIAN_POINT ( 'NONE',  ( 250.0000000000000000, 300.0000000000001137, 3.000000000000000000 ) ) ;
#184 = PLANE ( 'NONE',  #152 ) ;
#185 = DIRECTION ( 'NONE',  ( 0.000000000000000000, 0.000000000000000000, 1.000000000000000000 ) ) ;
#186 = SHAPE_DEFINITION_REPRESENTATION ( #19, #216 ) ;
#187 = VECTOR ( 'NONE', #77, 1000.000000000000000 ) ;
#188 = ADVANCED_FACE ( 'NONE', ( #149 ), #146, .F. ) ;
#189 = PRODUCT ( 'LVH3.00.5060(500x600)', 'LVH3.00.5060(500x600)', '', ( #76 ) ) ;
#190 = ORIENTED_EDGE ( 'NONE', *, *, #127, .T. ) ;
#191 = PERSON_AND_ORGANIZATION_ROLE ( 'creator' ) ;
#192 = VECTOR ( 'NONE', #214, 1000.000000000000000 ) ;
#193 = DATE_AND_TIME ( #121, #168 ) ;
#194 = ORIENTED_EDGE ( 'NONE', *, *, #87, .T. ) ;
#195 = CARTESIAN_POINT ( 'NONE',  ( 250.0000000000000000, 300.0000000000001137, 3.000000000000000000 ) ) ;
#196 = CARTESIAN_POINT ( 'NONE',  ( 250.0000000000000568, -299.9999999999999432, 0.000000000000000000 ) ) ;
#197 = ORIENTED_EDGE ( 'NONE', *, *, #78, .T. ) ;
#198 = EDGE_LOOP ( 'NONE', ( #136, #43, #232, #25 ) ) ;
#199 = LOCAL_TIME ( 13, 18, 19.00000000000000000, #23 ) ;
#200 = CARTESIAN_POINT ( 'NONE',  ( -249.9999999999999147, 300.0000000000000000, 3.000000000000000000 ) ) ;
#201 = COORDINATED_UNIVERSAL_TIME_OFFSET ( 3, 0, .AHEAD. ) ;
#202 = CARTESIAN_POINT ( 'NONE',  ( 0.000000000000000000, 0.000000000000000000, 3.000000000000000000 ) ) ;
#203 = PERSON_AND_ORGANIZATION ( #69, #111 ) ;
#204 = APPLICATION_CONTEXT ( 'configuration controlled 3d designs of mechanical parts and assemblies' ) ;
#205 =( GEOMETRIC_REPRESENTATION_CONTEXT ( 3 ) GLOBAL_UNCERTAINTY_ASSIGNED_CONTEXT ( ( #81 ) ) GLOBAL_UNIT_ASSIGNED_CONTEXT ( ( #129, #53, #234 ) ) REPRESENTATION_CONTEXT ( 'NONE', 'WORKASPACE' ) );
#206 = APPROVAL_ROLE ( '' ) ;
#207 = SECURITY_CLASSIFICATION_LEVEL ( 'unclassified' ) ;
#208 = VECTOR ( 'NONE', #21, 1000.000000000000000 ) ;
#209 = FACE_OUTER_BOUND ( 'NONE', #172, .T. ) ;
#210 = CARTESIAN_POINT ( 'NONE',  ( -249.9999999999999147, 300.0000000000000000, 3.000000000000000000 ) ) ;
#211 = DIRECTION ( 'NONE',  ( -1.000000000000000000, 0.000000000000000000, -0.000000000000000000 ) ) ;
#212 = VECTOR ( 'NONE', #16, 1000.000000000000000 ) ;
#213 = ORIENTED_EDGE ( 'NONE', *, *, #173, .T. ) ;
#214 = DIRECTION ( 'NONE',  ( 2.312964634635742957E-16, -1.000000000000000000, 0.000000000000000000 ) ) ;
#215 = EDGE_CURVE ( 'NONE', #177, #126, #132, .T. ) ;
#216 = ADVANCED_BREP_SHAPE_REPRESENTATION ( 'LVH3.00.5060(500x600)', ( #236, #139 ), #205 ) ;
#217 = DIRECTION ( 'NONE',  ( 2.312964634635742957E-16, -1.000000000000000000, 0.000000000000000000 ) ) ;
#218 = LOCAL_TIME ( 13, 18, 19.00000000000000000, #28 ) ;
#219 = APPROVAL_ROLE ( '' ) ;
#220 = LINE ( 'NONE', #200, #2 ) ;
#221 = EDGE_CURVE ( 'NONE', #126, #108, #220, .T. ) ;
#222 = DATE_AND_TIME ( #80, #130 ) ;
#223 = VERTEX_POINT ( 'NONE', #59 ) ;
#224 = CC_DESIGN_APPROVAL ( #58, ( #134 ) ) ;
#225 = DATE_TIME_ROLE ( 'creation_date' ) ;
#226 = SECURITY_CLASSIFICATION ( '', '', #207 ) ;
#227 = ORIENTED_EDGE ( 'NONE', *, *, #41, .T. ) ;
#228 = ORIENTED_EDGE ( 'NONE', *, *, #41, .F. ) ;
#229 = CARTESIAN_POINT ( 'NONE',  ( -249.9999999999997726, -300.0000000000000000, 3.000000000000000000 ) ) ;
#230 = VECTOR ( 'NONE', #52, 1000.000000000000000 ) ;
#231 = DIRECTION ( 'NONE',  ( -1.000000000000000000, -9.251858538542969116E-17, 0.000000000000000000 ) ) ;
#232 = ORIENTED_EDGE ( 'NONE', *, *, #161, .T. ) ;
#233 = LINE ( 'NONE', #40, #178 ) ;
#234 =( NAMED_UNIT ( * ) SI_UNIT ( $, .STERADIAN. ) SOLID_ANGLE_UNIT ( ) );
#235 = ADVANCED_FACE ( 'NONE', ( #167 ), #184, .F. ) ;
#236 = MANIFOLD_SOLID_BREP ( 'Yükseklik-Ekstrüzyon1', #44 ) ;
#237 = DIRECTION ( 'NONE',  ( -9.251858538542970348E-17, 1.000000000000000000, -0.000000000000000000 ) ) ;
ENDSEC;
END-ISO-10303-21;
