ISO-10303-21;
HEADER;
FILE_DESCRIPTION (( 'STEP AP214' ),
    '1' );
FILE_NAME ('LKM-386.STEP',
    '2024-06-24T19:19:20',
    ( '' ),
    ( '' ),
    'SwSTEP 2.0',
    'SolidWorks 2021',
    '' );
FILE_SCHEMA (( 'AUTOMOTIVE_DESIGN' ));
ENDSEC;

DATA;
#1 = CARTESIAN_POINT ( 'NONE',  ( 0.000000000000000000, -0.05905511811023622659, 0.1067955000000000015 ) ) ;
#2 = AXIS2_PLACEMENT_3D ( 'NONE', #165, #373, #281 ) ;
#3 = EDGE_LOOP ( 'NONE', ( #31, #124 ) ) ;
#4 = VECTOR ( 'NONE', #157, 39.37007874015748143 ) ;
#5 = VERTEX_POINT ( 'NONE', #180 ) ;
#6 = MANIFOLD_SOLID_BREP ( 'Imported1', #176 ) ;
#7 = ORIENTED_EDGE ( 'NONE', *, *, #345, .F. ) ;
#8 = CARTESIAN_POINT ( 'NONE',  ( 0.000000000000000000, -0.05905511811023622659, 0.000000000000000000 ) ) ;
#9 = ORIENTED_EDGE ( 'NONE', *, *, #42, .F. ) ;
#10 = FILL_AREA_STYLE_COLOUR ( '', #105 ) ;
#11 = EDGE_CURVE ( 'NONE', #134, #363, #227, .T. ) ;
#12 = ORIENTED_EDGE ( 'NONE', *, *, #314, .T. ) ;
#13 = SURFACE_STYLE_USAGE ( .BOTH. , #276 ) ;
#14 = DIRECTION ( 'NONE',  ( -1.000000000000000000, 0.000000000000000000, 0.000000000000000000 ) ) ;
#15 = PRESENTATION_LAYER_ASSIGNMENT (  '', '', ( #119 ) ) ;
#16 = AXIS2_PLACEMENT_3D ( 'NONE', #226, #145, #257 ) ;
#17 = PRODUCT_DEFINITION_FORMATION_WITH_SPECIFIED_SOURCE ( 'ANY', '', #376, .NOT_KNOWN. ) ;
#18 = ADVANCED_FACE ( 'NONE', ( #169 ), #50, .T. ) ;
#19 = DIRECTION ( 'NONE',  ( 0.000000000000000000, 0.000000000000000000, 1.000000000000000000 ) ) ;
#20 = LINE ( 'NONE', #347, #303 ) ;
#21 = DIMENSIONAL_EXPONENTS ( 1.000000000000000000, 0.000000000000000000, 0.000000000000000000, 0.000000000000000000, 0.000000000000000000, 0.000000000000000000, 0.000000000000000000 ) ;
#22 =( GEOMETRIC_REPRESENTATION_CONTEXT ( 3 ) GLOBAL_UNCERTAINTY_ASSIGNED_CONTEXT ( ( #357 ) ) GLOBAL_UNIT_ASSIGNED_CONTEXT ( ( #312, #138, #315 ) ) REPRESENTATION_CONTEXT ( 'NONE', 'WORKASPACE' ) );
#23 = CARTESIAN_POINT ( 'NONE',  ( 0.1771653543307086520, -0.05905511811023619884, 0.2164999999999999980 ) ) ;
#24 = ADVANCED_FACE ( 'NONE', ( #318, #108 ), #316, .T. ) ;
#25 = DIRECTION ( 'NONE',  ( 0.000000000000000000, 0.000000000000000000, -1.000000000000000000 ) ) ;
#26 = FACE_OUTER_BOUND ( 'NONE', #361, .T. ) ;
#27 = EDGE_LOOP ( 'NONE', ( #93, #88, #36, #38 ) ) ;
#28 = ADVANCED_FACE ( 'NONE', ( #136 ), #80, .T. ) ;
#29 = AXIS2_PLACEMENT_3D ( 'NONE', #184, #374, #370 ) ;
#30 = CARTESIAN_POINT ( 'NONE',  ( 0.000000000000000000, -0.05905511811023622659, 0.1062955000000000011 ) ) ;
#31 = ORIENTED_EDGE ( 'NONE', *, *, #106, .T. ) ;
#32 = FACE_BOUND ( 'NONE', #302, .T. ) ;
#33 = CARTESIAN_POINT ( 'NONE',  ( 0.000000000000000000, -0.05905511811023622659, 0.1062955000000000011 ) ) ;
#34 = VERTEX_POINT ( 'NONE', #309 ) ;
#35 = FACE_OUTER_BOUND ( 'NONE', #27, .T. ) ;
#36 = ORIENTED_EDGE ( 'NONE', *, *, #87, .T. ) ;
#37 = LINE ( 'NONE', #152, #60 ) ;
#38 = ORIENTED_EDGE ( 'NONE', *, *, #366, .T. ) ;
#39 = UNCERTAINTY_MEASURE_WITH_UNIT (LENGTH_MEASURE( 1.000000000000000082E-05 ), #140, 'distance_accuracy_value', 'NONE');
#40 = CARTESIAN_POINT ( 'NONE',  ( 0.08267716535433070058, -0.05905511811023621271, 0.000000000000000000 ) ) ;
#41 = ORIENTED_EDGE ( 'NONE', *, *, #366, .F. ) ;
#42 = EDGE_CURVE ( 'NONE', #46, #178, #76, .T. ) ;
#43 = VERTEX_POINT ( 'NONE', #48 ) ;
#44 = AXIS2_PLACEMENT_3D ( 'NONE', #163, #278, #14 ) ;
#45 = FILL_AREA_STYLE ('',( #10 ) ) ;
#46 = VERTEX_POINT ( 'NONE', #23 ) ;
#47 = LENGTH_MEASURE_WITH_UNIT ( LENGTH_MEASURE( 0.02539999999999999897 ), #368 );
#48 = CARTESIAN_POINT ( 'NONE',  ( -0.2362204724409449064, 0.000000000000000000, 0.1062955000000000011 ) ) ;
#49 = CARTESIAN_POINT ( 'NONE',  ( 0.000000000000000000, -0.05905511811023622659, 0.2164999999999999980 ) ) ;
#50 = CYLINDRICAL_SURFACE ( 'NONE', #90, 0.08713093229760630887 ) ;
#51 = EDGE_CURVE ( 'NONE', #34, #5, #258, .T. ) ;
#52 = DIRECTION ( 'NONE',  ( 1.000000000000000000, 0.000000000000000000, 0.000000000000000000 ) ) ;
#53 = AXIS2_PLACEMENT_3D ( 'NONE', #230, #25, #320 ) ;
#54 = CIRCLE ( 'NONE', #311, 0.08267716535433070058 ) ;
#55 = DIRECTION ( 'NONE',  ( 1.000000000000000000, 0.000000000000000000, 0.000000000000000000 ) ) ;
#56 = DIRECTION ( 'NONE',  ( 0.000000000000000000, 0.000000000000000000, 1.000000000000000000 ) ) ;
#57 = CARTESIAN_POINT ( 'NONE',  ( 0.000000000000000000, 0.000000000000000000, 0.1062955000000000011 ) ) ;
#58 = EDGE_CURVE ( 'NONE', #290, #5, #79, .T. ) ;
#59 = CIRCLE ( 'NONE', #141, 0.08267716535433070058 ) ;
#60 = VECTOR ( 'NONE', #206, 39.37007874015748143 ) ;
#61 = LINE ( 'NONE', #351, #170 ) ;
#62 = VERTEX_POINT ( 'NONE', #225 ) ;
#63 = DIRECTION ( 'NONE',  ( 1.000000000000000000, 0.000000000000000000, 0.000000000000000000 ) ) ;
#64 = VERTEX_POINT ( 'NONE', #282 ) ;
#65 = PRODUCT_DEFINITION ( 'UNKNOWN', '', #17, #127 ) ;
#66 = ORIENTED_EDGE ( 'NONE', *, *, #314, .F. ) ;
#67 = CIRCLE ( 'NONE', #378, 0.08713093229760630887 ) ;
#68 = CARTESIAN_POINT ( 'NONE',  ( -0.08267716535433070058, -0.05905511811023622659, 0.2164999999999999980 ) ) ;
#69 = FILL_AREA_STYLE_COLOUR ( '', #273 ) ;
#70 = DIRECTION ( 'NONE',  ( 1.000000000000000000, 0.000000000000000000, 0.000000000000000000 ) ) ;
#71 = ORIENTED_EDGE ( 'NONE', *, *, #58, .F. ) ;
#72 = EDGE_CURVE ( 'NONE', #100, #134, #107, .T. ) ;
#73 =( NAMED_UNIT ( * ) SI_UNIT ( $, .STERADIAN. ) SOLID_ANGLE_UNIT ( ) );
#74 = EDGE_LOOP ( 'NONE', ( #211, #359, #382, #158 ) ) ;
#75 = FILL_AREA_STYLE ('',( #69 ) ) ;
#76 = CIRCLE ( 'NONE', #214, 0.1771653543307086520 ) ;
#77 = AXIS2_PLACEMENT_3D ( 'NONE', #172, #56, #260 ) ;
#78 = CARTESIAN_POINT ( 'NONE',  ( 0.2362204724409449064, 2.892866454678787531E-17, 0.1062955000000000011 ) ) ;
#79 = LINE ( 'NONE', #248, #96 ) ;
#80 = CYLINDRICAL_SURFACE ( 'NONE', #235, 0.08713093229760630887 ) ;
#81 = EDGE_CURVE ( 'NONE', #298, #62, #59, .T. ) ;
#82 = CARTESIAN_POINT ( 'NONE',  ( 0.000000000000000000, 0.000000000000000000, 0.1062955000000000011 ) ) ;
#83 = DIRECTION ( 'NONE',  ( 0.000000000000000000, 0.000000000000000000, -1.000000000000000000 ) ) ;
#84 = AXIS2_PLACEMENT_3D ( 'NONE', #202, #256, #174 ) ;
#85 = CARTESIAN_POINT ( 'NONE',  ( 0.000000000000000000, -0.05905511811023622659, 0.1067955000000000015 ) ) ;
#86 = FACE_BOUND ( 'NONE', #331, .T. ) ;
#87 = EDGE_CURVE ( 'NONE', #178, #277, #20, .T. ) ;
#88 = ORIENTED_EDGE ( 'NONE', *, *, #253, .F. ) ;
#89 = CARTESIAN_POINT ( 'NONE',  ( -0.1771653543307086520, -0.05905511811023622659, 0.2164999999999999980 ) ) ;
#90 = AXIS2_PLACEMENT_3D ( 'NONE', #221, #251, #369 ) ;
#91 = CIRCLE ( 'NONE', #120, 0.1771653543307086520 ) ;
#92 = DIRECTION ( 'NONE',  ( 0.000000000000000000, 0.000000000000000000, 1.000000000000000000 ) ) ;
#93 = ORIENTED_EDGE ( 'NONE', *, *, #292, .F. ) ;
#94 = LENGTH_MEASURE_WITH_UNIT ( LENGTH_MEASURE( 0.02539999999999999897 ), #362 );
#95 = ORIENTED_EDGE ( 'NONE', *, *, #288, .T. ) ;
#96 = VECTOR ( 'NONE', #254, 39.37007874015748143 ) ;
#97 = VECTOR ( 'NONE', #125, 39.37007874015748143 ) ;
#98 = VERTEX_POINT ( 'NONE', #344 ) ;
#99 = CARTESIAN_POINT ( 'NONE',  ( 0.08713093229760630887, -0.05905511811023621271, 0.1067955000000000015 ) ) ;
#100 = VERTEX_POINT ( 'NONE', #78 ) ;
#101 = CARTESIAN_POINT ( 'NONE',  ( -0.2362204724409449064, 0.000000000000000000, 0.1062955000000000011 ) ) ;
#102 = SURFACE_STYLE_FILL_AREA ( #75 ) ;
#103 = ORIENTED_EDGE ( 'NONE', *, *, #173, .T. ) ;
#104 = CIRCLE ( 'NONE', #319, 0.2362204724409449064 ) ;
#105 = COLOUR_RGB ( '',0.7921568627450980005, 0.8196078431372548767, 0.9294117647058823817 ) ;
#106 = EDGE_CURVE ( 'NONE', #43, #100, #279, .T. ) ;
#107 = LINE ( 'NONE', #112, #283 ) ;
#108 = FACE_BOUND ( 'NONE', #234, .T. ) ;
#109 = DIRECTION ( 'NONE',  ( 1.000000000000000000, 0.000000000000000000, 0.000000000000000000 ) ) ;
#110 = ADVANCED_FACE ( 'NONE', ( #189 ), #308, .T. ) ;
#111 = DIRECTION ( 'NONE',  ( 0.000000000000000000, 0.000000000000000000, 1.000000000000000000 ) ) ;
#112 = CARTESIAN_POINT ( 'NONE',  ( 0.2362204724409449064, 2.892866454678787531E-17, 0.1062955000000000011 ) ) ;
#113 = CYLINDRICAL_SURFACE ( 'NONE', #222, 0.2362204724409449064 ) ;
#114 = CYLINDRICAL_SURFACE ( 'NONE', #164, 0.2362204724409449064 ) ;
#115 = ORIENTED_EDGE ( 'NONE', *, *, #81, .T. ) ;
#116 = CYLINDRICAL_SURFACE ( 'NONE', #53, 0.08267716535433070058 ) ;
#117 = FACE_OUTER_BOUND ( 'NONE', #240, .T. ) ;
#118 = ADVANCED_FACE ( 'NONE', ( #117, #86 ), #289, .F. ) ;
#119 = STYLED_ITEM ( 'NONE', ( #237 ), #6 ) ;
#120 = AXIS2_PLACEMENT_3D ( 'NONE', #263, #349, #175 ) ;
#121 = FACE_OUTER_BOUND ( 'NONE', #333, .T. ) ;
#122 = ORIENTED_EDGE ( 'NONE', *, *, #307, .F. ) ;
#123 = CARTESIAN_POINT ( 'NONE',  ( -0.08267716535433070058, -0.05905511811023622659, 0.1062955000000000011 ) ) ;
#124 = ORIENTED_EDGE ( 'NONE', *, *, #196, .T. ) ;
#125 = DIRECTION ( 'NONE',  ( 0.000000000000000000, 0.000000000000000000, -1.000000000000000000 ) ) ;
#126 = ORIENTED_EDGE ( 'NONE', *, *, #270, .T. ) ;
#127 = PRODUCT_DEFINITION_CONTEXT ( 'detailed design', #372, 'design' ) ;
#128 = ADVANCED_FACE ( 'NONE', ( #26 ), #116, .F. ) ;
#129 = DIRECTION ( 'NONE',  ( 1.000000000000000000, 0.000000000000000000, 0.000000000000000000 ) ) ;
#130 = ORIENTED_EDGE ( 'NONE', *, *, #360, .F. ) ;
#131 = FACE_OUTER_BOUND ( 'NONE', #188, .T. ) ;
#132 = ORIENTED_EDGE ( 'NONE', *, *, #42, .T. ) ;
#133 = PRODUCT_CONTEXT ( 'NONE', #323, 'mechanical' ) ;
#134 = VERTEX_POINT ( 'NONE', #348 ) ;
#135 = EDGE_CURVE ( 'NONE', #5, #34, #310, .T. ) ;
#136 = FACE_OUTER_BOUND ( 'NONE', #153, .T. ) ;
#137 = CIRCLE ( 'NONE', #354, 0.1771653543307086520 ) ;
#138 =( NAMED_UNIT ( * ) PLANE_ANGLE_UNIT ( ) SI_UNIT ( $, .RADIAN. ) );
#139 = EDGE_CURVE ( 'NONE', #201, #290, #327, .T. ) ;
#140 =( CONVERSION_BASED_UNIT ( 'INCH', #190 ) LENGTH_UNIT ( ) NAMED_UNIT ( #21 ) );
#141 = AXIS2_PLACEMENT_3D ( 'NONE', #223, #313, #346 ) ;
#142 = AXIS2_PLACEMENT_3D ( 'NONE', #85, #381, #177 ) ;
#143 = DIRECTION ( 'NONE',  ( 0.000000000000000000, 0.000000000000000000, -1.000000000000000000 ) ) ;
#144 = DIRECTION ( 'NONE',  ( 0.000000000000000000, 0.000000000000000000, 1.000000000000000000 ) ) ;
#145 = DIRECTION ( 'NONE',  ( 0.000000000000000000, 0.000000000000000000, 1.000000000000000000 ) ) ;
#146 = MECHANICAL_DESIGN_GEOMETRIC_PRESENTATION_REPRESENTATION (  '', ( #119 ), #220 ) ;
#147 = AXIS2_PLACEMENT_3D ( 'NONE', #8, #268, #129 ) ;
#148 = CYLINDRICAL_SURFACE ( 'NONE', #329, 0.08267716535433070058 ) ;
#149 = DIRECTION ( 'NONE',  ( 0.000000000000000000, 0.000000000000000000, 1.000000000000000000 ) ) ;
#150 = CARTESIAN_POINT ( 'NONE',  ( 0.08713093229760630887, -0.05905511811023621271, 0.1067955000000000015 ) ) ;
#151 = AXIS2_PLACEMENT_3D ( 'NONE', #33, #203, #326 ) ;
#152 = CARTESIAN_POINT ( 'NONE',  ( 0.1771653543307086520, -0.05905511811023619884, 0.2164999999999999980 ) ) ;
#153 = EDGE_LOOP ( 'NONE', ( #209, #339, #261, #71 ) ) ;
#154 = CYLINDRICAL_SURFACE ( 'NONE', #166, 0.1771653543307086520 ) ;
#155 = ORIENTED_EDGE ( 'NONE', *, *, #11, .T. ) ;
#156 = ADVANCED_FACE ( 'NONE', ( #379, #32 ), #231, .F. ) ;
#157 = DIRECTION ( 'NONE',  ( 0.000000000000000000, 0.000000000000000000, -1.000000000000000000 ) ) ;
#158 = ORIENTED_EDGE ( 'NONE', *, *, #135, .T. ) ;
#159 = MECHANICAL_DESIGN_GEOMETRIC_PRESENTATION_REPRESENTATION (  '', ( #367 ), #22 ) ;
#160 = ORIENTED_EDGE ( 'NONE', *, *, #135, .F. ) ;
#161 = SURFACE_STYLE_FILL_AREA ( #45 ) ;
#162 = SURFACE_STYLE_USAGE ( .BOTH. , #213 ) ;
#163 = CARTESIAN_POINT ( 'NONE',  ( 0.000000000000000000, -0.05905511811023622659, 0.2164999999999999980 ) ) ;
#164 = AXIS2_PLACEMENT_3D ( 'NONE', #330, #199, #233 ) ;
#165 = CARTESIAN_POINT ( 'NONE',  ( 0.000000000000000000, 0.000000000000000000, 0.1062955000000000011 ) ) ;
#166 = AXIS2_PLACEMENT_3D ( 'NONE', #338, #210, #340 ) ;
#167 =( NAMED_UNIT ( * ) SI_UNIT ( $, .STERADIAN. ) SOLID_ANGLE_UNIT ( ) );
#168 = DIRECTION ( 'NONE',  ( 1.000000000000000000, 0.000000000000000000, 0.000000000000000000 ) ) ;
#169 = FACE_OUTER_BOUND ( 'NONE', #74, .T. ) ;
#170 = VECTOR ( 'NONE', #262, 39.37007874015748143 ) ;
#171 = AXIS2_PLACEMENT_3D ( 'NONE', #242, #358, #208 ) ;
#172 = CARTESIAN_POINT ( 'NONE',  ( 0.000000000000000000, -0.05905511811023622659, 0.2164999999999999980 ) ) ;
#173 = EDGE_CURVE ( 'NONE', #64, #298, #61, .T. ) ;
#174 = DIRECTION ( 'NONE',  ( 1.000000000000000000, 0.000000000000000000, 0.000000000000000000 ) ) ;
#175 = DIRECTION ( 'NONE',  ( 1.000000000000000000, 0.000000000000000000, 0.000000000000000000 ) ) ;
#176 = CLOSED_SHELL ( 'NONE', ( #28, #110, #259, #185, #24, #118, #224, #128, #300, #371, #156, #18 ) ) ;
#177 = DIRECTION ( 'NONE',  ( 1.000000000000000000, 0.000000000000000000, 0.000000000000000000 ) ) ;
#178 = VERTEX_POINT ( 'NONE', #89 ) ;
#179 = DIRECTION ( 'NONE',  ( -1.000000000000000000, 0.000000000000000000, 0.000000000000000000 ) ) ;
#180 = CARTESIAN_POINT ( 'NONE',  ( -0.08713093229760630887, -0.05905511811023622659, 0.1062955000000000011 ) ) ;
#181 = EDGE_LOOP ( 'NONE', ( #41, #286 ) ) ;
#182 = CARTESIAN_POINT ( 'NONE',  ( 0.000000000000000000, -0.05905511811023622659, 0.1067955000000000015 ) ) ;
#183 = ORIENTED_EDGE ( 'NONE', *, *, #51, .F. ) ;
#184 = CARTESIAN_POINT ( 'NONE',  ( 0.000000000000000000, 0.000000000000000000, 0.000000000000000000 ) ) ;
#185 = ADVANCED_FACE ( 'NONE', ( #377 ), #114, .T. ) ;
#186 = CARTESIAN_POINT ( 'NONE',  ( -0.2362204724409449064, 0.000000000000000000, 0.000000000000000000 ) ) ;
#187 =( GEOMETRIC_REPRESENTATION_CONTEXT ( 3 ) GLOBAL_UNCERTAINTY_ASSIGNED_CONTEXT ( ( #238 ) ) GLOBAL_UNIT_ASSIGNED_CONTEXT ( ( #274, #271, #73 ) ) REPRESENTATION_CONTEXT ( 'NONE', 'WORKASPACE' ) );
#188 = EDGE_LOOP ( 'NONE', ( #365, #132 ) ) ;
#189 = FACE_OUTER_BOUND ( 'NONE', #269, .T. ) ;
#190 = LENGTH_MEASURE_WITH_UNIT ( LENGTH_MEASURE( 0.02539999999999999897 ), #295 );
#191 = DIMENSIONAL_EXPONENTS ( 1.000000000000000000, 0.000000000000000000, 0.000000000000000000, 0.000000000000000000, 0.000000000000000000, 0.000000000000000000, 0.000000000000000000 ) ;
#192 = DIRECTION ( 'NONE',  ( 0.000000000000000000, 0.000000000000000000, -1.000000000000000000 ) ) ;
#193 = PRESENTATION_LAYER_ASSIGNMENT (  '', '', ( #367 ) ) ;
#194 = CARTESIAN_POINT ( 'NONE',  ( 0.000000000000000000, -0.05905511811023622659, 0.1062955000000000011 ) ) ;
#195 = DIRECTION ( 'NONE',  ( 0.000000000000000000, 0.000000000000000000, 1.000000000000000000 ) ) ;
#196 = EDGE_CURVE ( 'NONE', #100, #43, #104, .T. ) ;
#197 = DIRECTION ( 'NONE',  ( -1.000000000000000000, 0.000000000000000000, 0.000000000000000000 ) ) ;
#198 = AXIS2_PLACEMENT_3D ( 'NONE', #317, #111, #219 ) ;
#199 = DIRECTION ( 'NONE',  ( 0.000000000000000000, 0.000000000000000000, -1.000000000000000000 ) ) ;
#200 = CARTESIAN_POINT ( 'NONE',  ( 0.000000000000000000, 0.000000000000000000, 0.1062955000000000011 ) ) ;
#201 = VERTEX_POINT ( 'NONE', #150 ) ;
#202 = CARTESIAN_POINT ( 'NONE',  ( 0.000000000000000000, -0.05905511811023622659, 0.1067955000000000015 ) ) ;
#203 = DIRECTION ( 'NONE',  ( 0.000000000000000000, 0.000000000000000000, 1.000000000000000000 ) ) ;
#204 = DIRECTION ( 'NONE',  ( 0.000000000000000000, 0.000000000000000000, -1.000000000000000000 ) ) ;
#205 = EDGE_CURVE ( 'NONE', #363, #134, #296, .T. ) ;
#206 = DIRECTION ( 'NONE',  ( 0.000000000000000000, 0.000000000000000000, -1.000000000000000000 ) ) ;
#207 = ORIENTED_EDGE ( 'NONE', *, *, #72, .T. ) ;
#208 = DIRECTION ( 'NONE',  ( 1.000000000000000000, 0.000000000000000000, 0.000000000000000000 ) ) ;
#209 = ORIENTED_EDGE ( 'NONE', *, *, #139, .F. ) ;
#210 = DIRECTION ( 'NONE',  ( 0.000000000000000000, 0.000000000000000000, -1.000000000000000000 ) ) ;
#211 = ORIENTED_EDGE ( 'NONE', *, *, #337, .F. ) ;
#212 = CARTESIAN_POINT ( 'NONE',  ( 0.000000000000000000, -0.05905511811023622659, 0.2164999999999999980 ) ) ;
#213 = SURFACE_SIDE_STYLE ('',( #102 ) ) ;
#214 = AXIS2_PLACEMENT_3D ( 'NONE', #49, #19, #109 ) ;
#215 = VECTOR ( 'NONE', #204, 39.37007874015748143 ) ;
#216 = ORIENTED_EDGE ( 'NONE', *, *, #205, .F. ) ;
#217 = EDGE_CURVE ( 'NONE', #290, #201, #67, .T. ) ;
#218 = DIRECTION ( 'NONE',  ( 0.000000000000000000, 0.000000000000000000, 1.000000000000000000 ) ) ;
#219 = DIRECTION ( 'NONE',  ( 1.000000000000000000, 0.000000000000000000, 0.000000000000000000 ) ) ;
#220 =( GEOMETRIC_REPRESENTATION_CONTEXT ( 3 ) GLOBAL_UNCERTAINTY_ASSIGNED_CONTEXT ( ( #39 ) ) GLOBAL_UNIT_ASSIGNED_CONTEXT ( ( #140, #249, #167 ) ) REPRESENTATION_CONTEXT ( 'NONE', 'WORKASPACE' ) );
#221 = CARTESIAN_POINT ( 'NONE',  ( 0.000000000000000000, -0.05905511811023622659, 0.1067955000000000015 ) ) ;
#222 = AXIS2_PLACEMENT_3D ( 'NONE', #57, #285, #179 ) ;
#223 = CARTESIAN_POINT ( 'NONE',  ( 0.000000000000000000, -0.05905511811023622659, 0.000000000000000000 ) ) ;
#224 = ADVANCED_FACE ( 'NONE', ( #321 ), #113, .T. ) ;
#225 = CARTESIAN_POINT ( 'NONE',  ( -0.08267716535433070058, -0.05905511811023622659, 0.000000000000000000 ) ) ;
#226 = CARTESIAN_POINT ( 'NONE',  ( 0.000000000000000000, 0.000000000000000000, 0.000000000000000000 ) ) ;
#227 = CIRCLE ( 'NONE', #29, 0.2362204724409449064 ) ;
#228 = ORIENTED_EDGE ( 'NONE', *, *, #217, .T. ) ;
#229 = AXIS2_PLACEMENT_3D ( 'NONE', #324, #149, #383 ) ;
#230 = CARTESIAN_POINT ( 'NONE',  ( 0.000000000000000000, -0.05905511811023622659, 0.1062955000000000011 ) ) ;
#231 = PLANE ( 'NONE',  #265 ) ;
#232 = ORIENTED_EDGE ( 'NONE', *, *, #81, .F. ) ;
#233 = DIRECTION ( 'NONE',  ( -1.000000000000000000, 0.000000000000000000, 0.000000000000000000 ) ) ;
#234 = EDGE_LOOP ( 'NONE', ( #160, #183 ) ) ;
#235 = AXIS2_PLACEMENT_3D ( 'NONE', #375, #143, #252 ) ;
#236 = FACE_BOUND ( 'NONE', #336, .T. ) ;
#237 = PRESENTATION_STYLE_ASSIGNMENT (( #162 ) ) ;
#238 = UNCERTAINTY_MEASURE_WITH_UNIT (LENGTH_MEASURE( 1.000000000000000082E-05 ), #274, 'distance_accuracy_value', 'NONE');
#239 = LINE ( 'NONE', #123, #215 ) ;
#240 = EDGE_LOOP ( 'NONE', ( #216, #341 ) ) ;
#241 = AXIS2_PLACEMENT_3D ( 'NONE', #82, #195, #52 ) ;
#242 = CARTESIAN_POINT ( 'NONE',  ( 0.000000000000000000, -0.05905511811023622659, 0.2164999999999999980 ) ) ;
#243 = ORIENTED_EDGE ( 'NONE', *, *, #360, .T. ) ;
#244 = LINE ( 'NONE', #101, #4 ) ;
#245 = ORIENTED_EDGE ( 'NONE', *, *, #87, .F. ) ;
#246 = ORIENTED_EDGE ( 'NONE', *, *, #72, .F. ) ;
#247 = AXIS2_PLACEMENT_3D ( 'NONE', #194, #218, #168 ) ;
#248 = CARTESIAN_POINT ( 'NONE',  ( -0.08713093229760630887, -0.05905511811023622659, 0.1067955000000000015 ) ) ;
#249 =( NAMED_UNIT ( * ) PLANE_ANGLE_UNIT ( ) SI_UNIT ( $, .RADIAN. ) );
#250 = APPLICATION_PROTOCOL_DEFINITION ( 'draft international standard', 'automotive_design', 1998, #372 ) ;
#251 = DIRECTION ( 'NONE',  ( 0.000000000000000000, 0.000000000000000000, -1.000000000000000000 ) ) ;
#252 = DIRECTION ( 'NONE',  ( -1.000000000000000000, 0.000000000000000000, 0.000000000000000000 ) ) ;
#253 = EDGE_CURVE ( 'NONE', #178, #46, #91, .T. ) ;
#254 = DIRECTION ( 'NONE',  ( 0.000000000000000000, 0.000000000000000000, -1.000000000000000000 ) ) ;
#255 = PRODUCT_DEFINITION_SHAPE ( 'NONE', 'NONE',  #65 ) ;
#256 = DIRECTION ( 'NONE',  ( 0.000000000000000000, 0.000000000000000000, 1.000000000000000000 ) ) ;
#257 = DIRECTION ( 'NONE',  ( 1.000000000000000000, 0.000000000000000000, 0.000000000000000000 ) ) ;
#258 = CIRCLE ( 'NONE', #247, 0.08713093229760630887 ) ;
#259 = ADVANCED_FACE ( 'NONE', ( #121 ), #148, .F. ) ;
#260 = DIRECTION ( 'NONE',  ( 1.000000000000000000, 0.000000000000000000, 0.000000000000000000 ) ) ;
#261 = ORIENTED_EDGE ( 'NONE', *, *, #51, .T. ) ;
#262 = DIRECTION ( 'NONE',  ( 0.000000000000000000, 0.000000000000000000, -1.000000000000000000 ) ) ;
#263 = CARTESIAN_POINT ( 'NONE',  ( 0.000000000000000000, -0.05905511811023622659, 0.2164999999999999980 ) ) ;
#264 = EDGE_LOOP ( 'NONE', ( #246, #325, #12, #343 ) ) ;
#265 = AXIS2_PLACEMENT_3D ( 'NONE', #350, #144, #55 ) ;
#266 = PRESENTATION_STYLE_ASSIGNMENT (( #13 ) ) ;
#267 = ORIENTED_EDGE ( 'NONE', *, *, #196, .F. ) ;
#268 = DIRECTION ( 'NONE',  ( 0.000000000000000000, 0.000000000000000000, 1.000000000000000000 ) ) ;
#269 = EDGE_LOOP ( 'NONE', ( #9, #328, #95, #245 ) ) ;
#270 = EDGE_CURVE ( 'NONE', #306, #64, #342, .T. ) ;
#271 =( NAMED_UNIT ( * ) PLANE_ANGLE_UNIT ( ) SI_UNIT ( $, .RADIAN. ) );
#272 = EDGE_LOOP ( 'NONE', ( #267, #207, #155, #66 ) ) ;
#273 = COLOUR_RGB ( '',0.7921568627450980005, 0.8196078431372548767, 0.9294117647058823817 ) ;
#274 =( CONVERSION_BASED_UNIT ( 'INCH', #94 ) LENGTH_UNIT ( ) NAMED_UNIT ( #191 ) );
#275 = ORIENTED_EDGE ( 'NONE', *, *, #307, .T. ) ;
#276 = SURFACE_SIDE_STYLE ('',( #161 ) ) ;
#277 = VERTEX_POINT ( 'NONE', #287 ) ;
#278 = DIRECTION ( 'NONE',  ( 0.000000000000000000, 0.000000000000000000, -1.000000000000000000 ) ) ;
#279 = CIRCLE ( 'NONE', #241, 0.2362204724409449064 ) ;
#280 = SHAPE_DEFINITION_REPRESENTATION ( #255, #355 ) ;
#281 = DIRECTION ( 'NONE',  ( 1.000000000000000000, 0.000000000000000000, 0.000000000000000000 ) ) ;
#282 = CARTESIAN_POINT ( 'NONE',  ( 0.08267716535433070058, -0.05905511811023621271, 0.2164999999999999980 ) ) ;
#283 = VECTOR ( 'NONE', #192, 39.37007874015748143 ) ;
#284 = DIRECTION ( 'NONE',  ( 0.000000000000000000, 0.000000000000000000, -1.000000000000000000 ) ) ;
#285 = DIRECTION ( 'NONE',  ( 0.000000000000000000, 0.000000000000000000, -1.000000000000000000 ) ) ;
#286 = ORIENTED_EDGE ( 'NONE', *, *, #288, .F. ) ;
#287 = CARTESIAN_POINT ( 'NONE',  ( -0.1771653543307086520, -0.05905511811023622659, 0.1067955000000000015 ) ) ;
#288 = EDGE_CURVE ( 'NONE', #98, #277, #304, .T. ) ;
#289 = PLANE ( 'NONE',  #16 ) ;
#290 = VERTEX_POINT ( 'NONE', #291 ) ;
#291 = CARTESIAN_POINT ( 'NONE',  ( -0.08713093229760630887, -0.05905511811023622659, 0.1067955000000000015 ) ) ;
#292 = EDGE_CURVE ( 'NONE', #46, #98, #37, .T. ) ;
#293 = DIRECTION ( 'NONE',  ( 1.000000000000000000, 0.000000000000000000, 0.000000000000000000 ) ) ;
#294 = ORIENTED_EDGE ( 'NONE', *, *, #139, .T. ) ;
#295 =( LENGTH_UNIT ( ) NAMED_UNIT ( * ) SI_UNIT ( $, .METRE. ) );
#296 = CIRCLE ( 'NONE', #229, 0.2362204724409449064 ) ;
#297 = PLANE ( 'NONE',  #171 ) ;
#298 = VERTEX_POINT ( 'NONE', #40 ) ;
#299 = ORIENTED_EDGE ( 'NONE', *, *, #173, .F. ) ;
#300 = ADVANCED_FACE ( 'NONE', ( #131, #236 ), #297, .T. ) ;
#301 = APPLICATION_PROTOCOL_DEFINITION ( 'draft international standard', 'automotive_design', 1998, #323 ) ;
#302 = EDGE_LOOP ( 'NONE', ( #228, #294 ) ) ;
#303 = VECTOR ( 'NONE', #284, 39.37007874015748143 ) ;
#304 = CIRCLE ( 'NONE', #142, 0.1771653543307086520 ) ;
#305 = DIRECTION ( 'NONE',  ( 0.000000000000000000, 0.000000000000000000, 1.000000000000000000 ) ) ;
#306 = VERTEX_POINT ( 'NONE', #68 ) ;
#307 = EDGE_CURVE ( 'NONE', #62, #298, #334, .T. ) ;
#308 = CYLINDRICAL_SURFACE ( 'NONE', #44, 0.1771653543307086520 ) ;
#309 = CARTESIAN_POINT ( 'NONE',  ( 0.08713093229760630887, -0.05905511811023621271, 0.1062955000000000011 ) ) ;
#310 = CIRCLE ( 'NONE', #151, 0.08713093229760630887 ) ;
#311 = AXIS2_PLACEMENT_3D ( 'NONE', #212, #335, #70 ) ;
#312 =( CONVERSION_BASED_UNIT ( 'INCH', #47 ) LENGTH_UNIT ( ) NAMED_UNIT ( #322 ) );
#313 = DIRECTION ( 'NONE',  ( 0.000000000000000000, 0.000000000000000000, 1.000000000000000000 ) ) ;
#314 = EDGE_CURVE ( 'NONE', #43, #363, #244, .T. ) ;
#315 =( NAMED_UNIT ( * ) SI_UNIT ( $, .STERADIAN. ) SOLID_ANGLE_UNIT ( ) );
#316 = PLANE ( 'NONE',  #2 ) ;
#317 = CARTESIAN_POINT ( 'NONE',  ( 0.000000000000000000, 0.000000000000000000, 0.000000000000000000 ) ) ;
#318 = FACE_OUTER_BOUND ( 'NONE', #3, .T. ) ;
#319 = AXIS2_PLACEMENT_3D ( 'NONE', #200, #353, #293 ) ;
#320 = DIRECTION ( 'NONE',  ( -1.000000000000000000, 0.000000000000000000, 0.000000000000000000 ) ) ;
#321 = FACE_OUTER_BOUND ( 'NONE', #264, .T. ) ;
#322 = DIMENSIONAL_EXPONENTS ( 1.000000000000000000, 0.000000000000000000, 0.000000000000000000, 0.000000000000000000, 0.000000000000000000, 0.000000000000000000, 0.000000000000000000 ) ;
#323 = APPLICATION_CONTEXT ( 'automotive_design' ) ;
#324 = CARTESIAN_POINT ( 'NONE',  ( 0.000000000000000000, 0.000000000000000000, 0.000000000000000000 ) ) ;
#325 = ORIENTED_EDGE ( 'NONE', *, *, #106, .F. ) ;
#326 = DIRECTION ( 'NONE',  ( 1.000000000000000000, 0.000000000000000000, 0.000000000000000000 ) ) ;
#327 = CIRCLE ( 'NONE', #84, 0.08713093229760630887 ) ;
#328 = ORIENTED_EDGE ( 'NONE', *, *, #292, .T. ) ;
#329 = AXIS2_PLACEMENT_3D ( 'NONE', #30, #83, #197 ) ;
#330 = CARTESIAN_POINT ( 'NONE',  ( 0.000000000000000000, 0.000000000000000000, 0.1062955000000000011 ) ) ;
#331 = EDGE_LOOP ( 'NONE', ( #275, #115 ) ) ;
#332 = DIRECTION ( 'NONE',  ( 1.000000000000000000, 0.000000000000000000, 0.000000000000000000 ) ) ;
#333 = EDGE_LOOP ( 'NONE', ( #126, #103, #122, #7 ) ) ;
#334 = CIRCLE ( 'NONE', #147, 0.08267716535433070058 ) ;
#335 = DIRECTION ( 'NONE',  ( 0.000000000000000000, 0.000000000000000000, 1.000000000000000000 ) ) ;
#336 = EDGE_LOOP ( 'NONE', ( #356, #130 ) ) ;
#337 = EDGE_CURVE ( 'NONE', #201, #34, #364, .T. ) ;
#338 = CARTESIAN_POINT ( 'NONE',  ( 0.000000000000000000, -0.05905511811023622659, 0.2164999999999999980 ) ) ;
#339 = ORIENTED_EDGE ( 'NONE', *, *, #337, .T. ) ;
#340 = DIRECTION ( 'NONE',  ( -1.000000000000000000, 0.000000000000000000, 0.000000000000000000 ) ) ;
#341 = ORIENTED_EDGE ( 'NONE', *, *, #11, .F. ) ;
#342 = CIRCLE ( 'NONE', #77, 0.08267716535433070058 ) ;
#343 = ORIENTED_EDGE ( 'NONE', *, *, #205, .T. ) ;
#344 = CARTESIAN_POINT ( 'NONE',  ( 0.1771653543307086520, -0.05905511811023619884, 0.1067955000000000015 ) ) ;
#345 = EDGE_CURVE ( 'NONE', #306, #62, #239, .T. ) ;
#346 = DIRECTION ( 'NONE',  ( 1.000000000000000000, 0.000000000000000000, 0.000000000000000000 ) ) ;
#347 = CARTESIAN_POINT ( 'NONE',  ( -0.1771653543307086520, -0.05905511811023622659, 0.2164999999999999980 ) ) ;
#348 = CARTESIAN_POINT ( 'NONE',  ( 0.2362204724409449064, 2.892866454678787531E-17, 0.000000000000000000 ) ) ;
#349 = DIRECTION ( 'NONE',  ( 0.000000000000000000, 0.000000000000000000, 1.000000000000000000 ) ) ;
#350 = CARTESIAN_POINT ( 'NONE',  ( 0.000000000000000000, -0.05905511811023622659, 0.1067955000000000015 ) ) ;
#351 = CARTESIAN_POINT ( 'NONE',  ( 0.08267716535433070058, -0.05905511811023621271, 0.1062955000000000011 ) ) ;
#352 = ORIENTED_EDGE ( 'NONE', *, *, #345, .T. ) ;
#353 = DIRECTION ( 'NONE',  ( 0.000000000000000000, 0.000000000000000000, 1.000000000000000000 ) ) ;
#354 = AXIS2_PLACEMENT_3D ( 'NONE', #182, #305, #332 ) ;
#355 = ADVANCED_BREP_SHAPE_REPRESENTATION ( 'LKM-386', ( #6, #198 ), #187 ) ;
#356 = ORIENTED_EDGE ( 'NONE', *, *, #270, .F. ) ;
#357 = UNCERTAINTY_MEASURE_WITH_UNIT (LENGTH_MEASURE( 1.000000000000000082E-05 ), #312, 'distance_accuracy_value', 'NONE');
#358 = DIRECTION ( 'NONE',  ( 0.000000000000000000, 0.000000000000000000, 1.000000000000000000 ) ) ;
#359 = ORIENTED_EDGE ( 'NONE', *, *, #217, .F. ) ;
#360 = EDGE_CURVE ( 'NONE', #64, #306, #54, .T. ) ;
#361 = EDGE_LOOP ( 'NONE', ( #299, #243, #352, #232 ) ) ;
#362 =( LENGTH_UNIT ( ) NAMED_UNIT ( * ) SI_UNIT ( $, .METRE. ) );
#363 = VERTEX_POINT ( 'NONE', #186 ) ;
#364 = LINE ( 'NONE', #99, #97 ) ;
#365 = ORIENTED_EDGE ( 'NONE', *, *, #253, .T. ) ;
#366 = EDGE_CURVE ( 'NONE', #277, #98, #137, .T. ) ;
#367 = STYLED_ITEM ( 'NONE', ( #266 ), #355 ) ;
#368 =( LENGTH_UNIT ( ) NAMED_UNIT ( * ) SI_UNIT ( $, .METRE. ) );
#369 = DIRECTION ( 'NONE',  ( -1.000000000000000000, 0.000000000000000000, 0.000000000000000000 ) ) ;
#370 = DIRECTION ( 'NONE',  ( 1.000000000000000000, 0.000000000000000000, 0.000000000000000000 ) ) ;
#371 = ADVANCED_FACE ( 'NONE', ( #35 ), #154, .T. ) ;
#372 = APPLICATION_CONTEXT ( 'automotive_design' ) ;
#373 = DIRECTION ( 'NONE',  ( 0.000000000000000000, 0.000000000000000000, 1.000000000000000000 ) ) ;
#374 = DIRECTION ( 'NONE',  ( 0.000000000000000000, 0.000000000000000000, 1.000000000000000000 ) ) ;
#375 = CARTESIAN_POINT ( 'NONE',  ( 0.000000000000000000, -0.05905511811023622659, 0.1067955000000000015 ) ) ;
#376 = PRODUCT ( 'LKM-386', 'LKM-386', '', ( #133 ) ) ;
#377 = FACE_OUTER_BOUND ( 'NONE', #272, .T. ) ;
#378 = AXIS2_PLACEMENT_3D ( 'NONE', #1, #92, #63 ) ;
#379 = FACE_OUTER_BOUND ( 'NONE', #181, .T. ) ;
#380 = PRODUCT_RELATED_PRODUCT_CATEGORY ( 'part', '', ( #376 ) ) ;
#381 = DIRECTION ( 'NONE',  ( 0.000000000000000000, 0.000000000000000000, 1.000000000000000000 ) ) ;
#382 = ORIENTED_EDGE ( 'NONE', *, *, #58, .T. ) ;
#383 = DIRECTION ( 'NONE',  ( 1.000000000000000000, 0.000000000000000000, 0.000000000000000000 ) ) ;
ENDSEC;
END-ISO-10303-21;
