ISO-10303-21;
HEADER;
FILE_DESCRIPTION (( 'STEP AP203' ),
    '1' );
FILE_NAME ('GMCBU-BBM-ECAP.step',
    '2024-07-23T19:29:31',
    ( '' ),
    ( '' ),
    'SwSTEP 2.0',
    'SolidWorks 2023',
    '' );
FILE_SCHEMA (( 'CONFIG_CONTROL_DESIGN' ));
ENDSEC;

DATA;
#1 = CALENDAR_DATE ( 2024, 23, 7 ) ;
#2 = VERTEX_POINT ( 'NONE', #350 ) ;
#3 = VECTOR ( 'NONE', #172, 39.37007874015748143 ) ;
#4 = CALENDAR_DATE ( 2024, 23, 7 ) ;
#5 = ORIENTED_EDGE ( 'NONE', *, *, #179, .T. ) ;
#6 = ORIENTED_EDGE ( 'NONE', *, *, #369, .F. ) ;
#7 = COORDINATED_UNIVERSAL_TIME_OFFSET ( 5, 0, .BEHIND. ) ;
#8 = VERTEX_POINT ( 'NONE', #129 ) ;
#9 = VECTOR ( 'NONE', #223, 39.37007874015748143 ) ;
#10 = EDGE_CURVE ( 'NONE', #148, #122, #324, .T. ) ;
#11 = EDGE_LOOP ( 'NONE', ( #90, #174, #252, #5, #392, #342 ) ) ;
#12 = CARTESIAN_POINT ( 'NONE',  ( 0.3858267716535433989, 0.5669291338582678197, 0.05905511811023622659 ) ) ;
#13 = DIRECTION ( 'NONE',  ( 1.000000000000000000, -5.664403186863040002E-17, 0.000000000000000000 ) ) ;
#14 = CARTESIAN_POINT ( 'NONE',  ( 0.8188976377952755792, 1.248031496062992129, 1.333910153156378525E-18 ) ) ;
#15 = EDGE_CURVE ( 'NONE', #280, #148, #22, .T. ) ;
#16 = APPROVAL_PERSON_ORGANIZATION ( #51, #168, #83 ) ;
#17 = VECTOR ( 'NONE', #188, 39.37007874015748143 ) ;
#18 = CARTESIAN_POINT ( 'NONE',  ( 0.8188976377952756902, -0.04724409448818898960, 0.05905511811023622659 ) ) ;
#19 = CARTESIAN_POINT ( 'NONE',  ( 0.8188976377952755792, 1.133858267716535639, 0.05905511811023622659 ) ) ;
#20 = DATE_AND_TIME ( #383, #109 ) ;
#21 = CARTESIAN_POINT ( 'NONE',  ( 0.8188976377952755792, 1.133858267716535639, -0.3346456692913385988 ) ) ;
#22 = LINE ( 'NONE', #166, #216 ) ;
#23 = DIRECTION ( 'NONE',  ( 1.000000000000000000, 2.265761274745219945E-16, -0.000000000000000000 ) ) ;
#24 = LOCAL_TIME ( 15, 29, 31.00000000000000000, #185 ) ;
#25 = ADVANCED_FACE ( 'NONE', ( #202 ), #101, .T. ) ;
#26 = AXIS2_PLACEMENT_3D ( 'NONE', #330, #171, #68 ) ;
#27 = PLANE ( 'NONE',  #359 ) ;
#28 = DIRECTION ( 'NONE',  ( 2.590520390792030120E-16, -1.000000000000000000, 0.000000000000000000 ) ) ;
#29 = ORIENTED_EDGE ( 'NONE', *, *, #97, .F. ) ;
#30 = DIRECTION ( 'NONE',  ( -1.000000000000000000, -2.960594732333750117E-16, 0.000000000000000000 ) ) ;
#31 = VERTEX_POINT ( 'NONE', #131 ) ;
#32 = CC_DESIGN_PERSON_AND_ORGANIZATION_ASSIGNMENT ( #302, #402, ( #38 ) ) ;
#33 = CARTESIAN_POINT ( 'NONE',  ( 0.3858267716535433989, 1.248031496062992129, 0.05905511811023622659 ) ) ;
#34 = LINE ( 'NONE', #231, #215 ) ;
#35 =( LENGTH_UNIT ( ) NAMED_UNIT ( * ) SI_UNIT ( $, .METRE. ) );
#36 = ORIENTED_EDGE ( 'NONE', *, *, #15, .F. ) ;
#37 = EDGE_CURVE ( 'NONE', #2, #327, #356, .T. ) ;
#38 = PRODUCT_DEFINITION_FORMATION_WITH_SPECIFIED_SOURCE ( 'ANY', '', #288, .NOT_KNOWN. ) ;
#39 = PERSON_AND_ORGANIZATION ( #86, #256 ) ;
#40 = EDGE_LOOP ( 'NONE', ( #43, #29, #401, #82 ) ) ;
#41 = VECTOR ( 'NONE', #229, 39.37007874015748143 ) ;
#42 = CARTESIAN_POINT ( 'NONE',  ( 0.000000000000000000, 0.000000000000000000, 0.000000000000000000 ) ) ;
#43 = ORIENTED_EDGE ( 'NONE', *, *, #261, .T. ) ;
#44 = EDGE_LOOP ( 'NONE', ( #74, #237, #271, #247, #250, #244, #269, #213 ) ) ;
#45 = APPROVAL_STATUS ( 'not_yet_approved' ) ;
#46 = VERTEX_POINT ( 'NONE', #430 ) ;
#47 = ORIENTED_EDGE ( 'NONE', *, *, #319, .F. ) ;
#48 = CARTESIAN_POINT ( 'NONE',  ( 6.829619984160658046E-17, -0.02362204724409448786, -0.3346456692913385988 ) ) ;
#49 = DIRECTION ( 'NONE',  ( 0.000000000000000000, -0.000000000000000000, 1.000000000000000000 ) ) ;
#50 = LINE ( 'NONE', #19, #205 ) ;
#51 = PERSON_AND_ORGANIZATION ( #86, #256 ) ;
#52 = LINE ( 'NONE', #352, #245 ) ;
#53 = VECTOR ( 'NONE', #322, 39.37007874015748143 ) ;
#54 = VECTOR ( 'NONE', #349, 39.37007874015748143 ) ;
#55 = DIRECTION ( 'NONE',  ( 0.000000000000000000, -0.000000000000000000, 1.000000000000000000 ) ) ;
#56 = CARTESIAN_POINT ( 'NONE',  ( 0.7716535433070867978, 0.000000000000000000, 0.05905511811023622659 ) ) ;
#57 = CARTESIAN_POINT ( 'NONE',  ( 0.3858267716535433989, -0.04724409448818896184, 0.05905511811023622659 ) ) ;
#58 = ADVANCED_FACE ( 'NONE', ( #426 ), #77, .T. ) ;
#59 = CARTESIAN_POINT ( 'NONE',  ( 0.7716535433070867978, 0.5669291338582678197, 0.000000000000000000 ) ) ;
#60 = LINE ( 'NONE', #203, #85 ) ;
#61 = APPROVAL_PERSON_ORGANIZATION ( #275, #235, #438 ) ;
#62 = DIRECTION ( 'NONE',  ( -0.000000000000000000, 0.000000000000000000, -1.000000000000000000 ) ) ;
#63 = VERTEX_POINT ( 'NONE', #18 ) ;
#64 = ADVANCED_FACE ( 'NONE', ( #423 ), #132, .T. ) ;
#65 = LINE ( 'NONE', #200, #53 ) ;
#66 = ORIENTED_EDGE ( 'NONE', *, *, #15, .T. ) ;
#67 = PLANE ( 'NONE',  #26 ) ;
#68 = DIRECTION ( 'NONE',  ( 1.000000000000000000, 0.000000000000000000, -0.000000000000000000 ) ) ;
#69 = CLOSED_SHELL ( 'NONE', ( #266, #418, #309, #187, #64, #25, #404, #379, #436, #80, #301, #58 ) ) ;
#70 = APPROVAL_STATUS ( 'not_yet_approved' ) ;
#71 = EDGE_LOOP ( 'NONE', ( #76, #120, #374, #150 ) ) ;
#72 = APPROVAL ( #70, 'UNSPECIFIED' ) ;
#73 = PERSON_AND_ORGANIZATION ( #86, #256 ) ;
#74 = ORIENTED_EDGE ( 'NONE', *, *, #199, .F. ) ;
#75 = COORDINATED_UNIVERSAL_TIME_OFFSET ( 5, 0, .BEHIND. ) ;
#76 = ORIENTED_EDGE ( 'NONE', *, *, #353, .T. ) ;
#77 = PLANE ( 'NONE',  #194 ) ;
#78 = APPLICATION_PROTOCOL_DEFINITION ( 'international standard', 'config_control_design', 1994, #335 ) ;
#79 = ORIENTED_EDGE ( 'NONE', *, *, #10, .T. ) ;
#80 = ADVANCED_FACE ( 'NONE', ( #317 ), #415, .T. ) ;
#81 = PERSON_AND_ORGANIZATION ( #86, #256 ) ;
#82 = ORIENTED_EDGE ( 'NONE', *, *, #161, .F. ) ;
#83 = APPROVAL_ROLE ( '' ) ;
#84 = CARTESIAN_POINT ( 'NONE',  ( 0.8188976377952756902, -0.04724409448818897572, 0.05905511811023622659 ) ) ;
#85 = VECTOR ( 'NONE', #105, 39.37007874015748143 ) ;
#86 = PERSON ( 'UNSPECIFIED', 'UNSPECIFIED', 'UNSPECIFIED', ('UNSPECIFIED'), ('UNSPECIFIED'), ('UNSPECIFIED') ) ;
#87 = DIRECTION ( 'NONE',  ( 1.000000000000000000, 1.480297366166879989E-16, 0.000000000000000000 ) ) ;
#88 = EDGE_CURVE ( 'NONE', #31, #2, #158, .T. ) ;
#89 = APPROVAL_DATE_TIME ( #20, #168 ) ;
#90 = ORIENTED_EDGE ( 'NONE', *, *, #117, .T. ) ;
#91 = CARTESIAN_POINT ( 'NONE',  ( 0.8188976377952756902, -0.04724409448818898266, -0.3346456692913385988 ) ) ;
#92 = DIRECTION ( 'NONE',  ( 1.000000000000000000, 3.700743415417190112E-16, 0.000000000000000000 ) ) ;
#93 = APPROVAL_STATUS ( 'not_yet_approved' ) ;
#94 = CARTESIAN_POINT ( 'NONE',  ( 0.3858267716535433989, 1.133858267716535639, 0.000000000000000000 ) ) ;
#95 = APPROVAL_PERSON_ORGANIZATION ( #81, #72, #144 ) ;
#96 = CARTESIAN_POINT ( 'NONE',  ( -3.496765431890259976E-16, 1.133858267716535639, 0.000000000000000000 ) ) ;
#97 = EDGE_CURVE ( 'NONE', #31, #295, #312, .T. ) ;
#98 = LINE ( 'NONE', #134, #233 ) ;
#99 = DIRECTION ( 'NONE',  ( 0.000000000000000000, -1.000000000000000000, 2.475283096020080175E-31 ) ) ;
#100 = CC_DESIGN_APPROVAL ( #235, ( #386 ) ) ;
#102 = EDGE_CURVE ( 'NONE', #361, #186, #378, .T. ) ;
#101 = PLANE ( 'NONE',  #140 ) ;
#103 = VECTOR ( 'NONE', #389, 39.37007874015748143 ) ;
#104 = AXIS2_PLACEMENT_3D ( 'NONE', #149, #243, #400 ) ;
#105 = DIRECTION ( 'NONE',  ( -0.000000000000000000, -0.000000000000000000, -1.000000000000000000 ) ) ;
#106 = APPLICATION_CONTEXT ( 'configuration controlled 3d designs of mechanical parts and assemblies' ) ;
#107 = FACE_OUTER_BOUND ( 'NONE', #337, .T. ) ;
#108 = LINE ( 'NONE', #297, #304 ) ;
#109 = LOCAL_TIME ( 15, 29, 31.00000000000000000, #411 ) ;
#110 =( NAMED_UNIT ( * ) SI_UNIT ( $, .STERADIAN. ) SOLID_ANGLE_UNIT ( ) );
#111 = EDGE_LOOP ( 'NONE', ( #152, #181, #135, #207 ) ) ;
#112 = EDGE_CURVE ( 'NONE', #327, #46, #387, .T. ) ;
#113 = PERSON_AND_ORGANIZATION ( #86, #256 ) ;
#114 = VERTEX_POINT ( 'NONE', #91 ) ;
#115 = MANIFOLD_SOLID_BREP ( 'Volumenk\X\F6rper1', #69 ) ;
#116 = ORIENTED_EDGE ( 'NONE', *, *, #398, .T. ) ;
#117 = EDGE_CURVE ( 'NONE', #122, #8, #126, .T. ) ;
#118 = ORIENTED_EDGE ( 'NONE', *, *, #334, .F. ) ;
#119 = VECTOR ( 'NONE', #156, 39.37007874015748143 ) ;
#120 = ORIENTED_EDGE ( 'NONE', *, *, #393, .T. ) ;
#121 = DIRECTION ( 'NONE',  ( 1.000000000000000000, 0.000000000000000000, -0.000000000000000000 ) ) ;
#122 = VERTEX_POINT ( 'NONE', #257 ) ;
#123 = PLANE ( 'NONE',  #176 ) ;
#124 = VECTOR ( 'NONE', #394, 39.37007874015748143 ) ;
#125 = CARTESIAN_POINT ( 'NONE',  ( 8.741913579725630220E-17, -0.04724409448818897572, 0.05905511811023622659 ) ) ;
#126 = LINE ( 'NONE', #255, #332 ) ;
#127 = DIRECTION ( 'NONE',  ( 0.000000000000000000, 0.000000000000000000, 1.000000000000000000 ) ) ;
#128 = CC_DESIGN_PERSON_AND_ORGANIZATION_ASSIGNMENT ( #39, #177, ( #424 ) ) ;
#129 = CARTESIAN_POINT ( 'NONE',  ( -0.04724409448818937818, 1.133858267716535639, 0.000000000000000000 ) ) ;
#130 = PLANE ( 'NONE',  #212 ) ;
#131 = CARTESIAN_POINT ( 'NONE',  ( 4.097771990496095172E-19, 0.000000000000000000, 0.000000000000000000 ) ) ;
#132 = PLANE ( 'NONE',  #435 ) ;
#133 = DIRECTION ( 'NONE',  ( 0.000000000000000000, 0.000000000000000000, 1.000000000000000000 ) ) ;
#134 = CARTESIAN_POINT ( 'NONE',  ( 0.7716535433070867978, -0.02362204724409448786, -0.3346456692913385988 ) ) ;
#135 = ORIENTED_EDGE ( 'NONE', *, *, #319, .T. ) ;
#136 = FACE_OUTER_BOUND ( 'NONE', #111, .T. ) ;
#137 = LOCAL_TIME ( 15, 29, 31.00000000000000000, #75 ) ;
#138 = AXIS2_PLACEMENT_3D ( 'NONE', #169, #30, #264 ) ;
#139 = LINE ( 'NONE', #33, #41 ) ;
#140 = AXIS2_PLACEMENT_3D ( 'NONE', #422, #290, #362 ) ;
#141 = LINE ( 'NONE', #299, #395 ) ;
#142 = DIRECTION ( 'NONE',  ( 0.000000000000000000, 0.000000000000000000, 1.000000000000000000 ) ) ;
#143 = ORIENTED_EDGE ( 'NONE', *, *, #341, .T. ) ;
#144 = APPROVAL_ROLE ( '' ) ;
#145 = ORIENTED_EDGE ( 'NONE', *, *, #192, .F. ) ;
#146 = CC_DESIGN_PERSON_AND_ORGANIZATION_ASSIGNMENT ( #73, #343, ( #288 ) ) ;
#147 =( CONVERSION_BASED_UNIT ( 'INCH', #307 ) LENGTH_UNIT ( ) NAMED_UNIT ( #214 ) );
#148 = VERTEX_POINT ( 'NONE', #14 ) ;
#149 = CARTESIAN_POINT ( 'NONE',  ( -3.496765431890256525E-16, 1.133858267716535639, 0.000000000000000000 ) ) ;
#150 = ORIENTED_EDGE ( 'NONE', *, *, #272, .T. ) ;
#151 = VECTOR ( 'NONE', #195, 39.37007874015748143 ) ;
#152 = ORIENTED_EDGE ( 'NONE', *, *, #204, .F. ) ;
#153 = EDGE_CURVE ( 'NONE', #170, #63, #421, .T. ) ;
#154 = CARTESIAN_POINT ( 'NONE',  ( -0.04724409448818937818, 1.248031496062992129, 0.05905511811023622659 ) ) ;
#155 = LOCAL_TIME ( 15, 29, 31.00000000000000000, #305 ) ;
#156 = DIRECTION ( 'NONE',  ( -1.000000000000000000, -2.726378989241888524E-63, -1.101441283070020034E-32 ) ) ;
#157 = VECTOR ( 'NONE', #357, 39.37007874015748143 ) ;
#158 = LINE ( 'NONE', #410, #193 ) ;
#159 = VECTOR ( 'NONE', #397, 39.37007874015748143 ) ;
#160 = LINE ( 'NONE', #425, #17 ) ;
#161 = EDGE_CURVE ( 'NONE', #429, #2, #52, .T. ) ;
#162 = CARTESIAN_POINT ( 'NONE',  ( 0.8188976377952756902, -0.04724409448818897572, 0.000000000000000000 ) ) ;
#163 = FACE_OUTER_BOUND ( 'NONE', #71, .T. ) ;
#164 = LOCAL_TIME ( 15, 29, 31.00000000000000000, #7 ) ;
#165 = CARTESIAN_POINT ( 'NONE',  ( -3.476276571937777238E-16, 1.133858267716535639, 0.000000000000000000 ) ) ;
#166 = CARTESIAN_POINT ( 'NONE',  ( 0.8188976377952756902, 1.248031496062992129, 0.005905511811023621965 ) ) ;
#167 = CARTESIAN_POINT ( 'NONE',  ( 0.7716535433070869088, 1.314887504654060607E-64, -0.3346456692913385988 ) ) ;
#168 = APPROVAL ( #93, 'UNSPECIFIED' ) ;
#169 = CARTESIAN_POINT ( 'NONE',  ( 0.7716535433070867978, 1.133858267716535639, 0.05905511811023622659 ) ) ;
#170 = VERTEX_POINT ( 'NONE', #190 ) ;
#171 = DIRECTION ( 'NONE',  ( 0.000000000000000000, 0.000000000000000000, 1.000000000000000000 ) ) ;
#172 = DIRECTION ( 'NONE',  ( -0.000000000000000000, -0.000000000000000000, -1.000000000000000000 ) ) ;
#173 = APPLICATION_PROTOCOL_DEFINITION ( 'international standard', 'config_control_design', 1994, #106 ) ;
#174 = ORIENTED_EDGE ( 'NONE', *, *, #360, .T. ) ;
#175 = DIRECTION ( 'NONE',  ( -0.000000000000000000, 0.000000000000000000, -1.000000000000000000 ) ) ;
#176 = AXIS2_PLACEMENT_3D ( 'NONE', #84, #87, #225 ) ;
#177 = PERSON_AND_ORGANIZATION_ROLE ( 'classification_officer' ) ;
#178 = ORIENTED_EDGE ( 'NONE', *, *, #221, .T. ) ;
#179 = EDGE_CURVE ( 'NONE', #232, #170, #259, .T. ) ;
#180 = MECHANICAL_CONTEXT ( 'NONE', #106, 'mechanical' ) ;
#181 = ORIENTED_EDGE ( 'NONE', *, *, #192, .T. ) ;
#182 = PERSON_AND_ORGANIZATION_ROLE ( 'creator' ) ;
#183 = ORIENTED_EDGE ( 'NONE', *, *, #325, .T. ) ;
#184 = DESIGN_CONTEXT ( 'detailed design', #335, 'design' ) ;
#185 = COORDINATED_UNIVERSAL_TIME_OFFSET ( 5, 0, .BEHIND. ) ;
#186 = VERTEX_POINT ( 'NONE', #419 ) ;
#187 = ADVANCED_FACE ( 'NONE', ( #219 ), #123, .T. ) ;
#188 = DIRECTION ( 'NONE',  ( -0.000000000000000000, 1.000000000000000000, 0.000000000000000000 ) ) ;
#189 = CARTESIAN_POINT ( 'NONE',  ( 8.741913579725630220E-17, -0.04724409448818897572, 0.05905511811023622659 ) ) ;
#190 = CARTESIAN_POINT ( 'NONE',  ( -0.04724409448818910062, -0.04724409448818896184, 0.05905511811023622659 ) ) ;
#191 = DIRECTION ( 'NONE',  ( 1.000000000000000000, 0.000000000000000000, -0.000000000000000000 ) ) ;
#192 = EDGE_CURVE ( 'NONE', #209, #279, #220, .T. ) ;
#193 = VECTOR ( 'NONE', #121, 39.37007874015748143 ) ;
#194 = AXIS2_PLACEMENT_3D ( 'NONE', #56, #348, #49 ) ;
#195 = DIRECTION ( 'NONE',  ( 1.000000000000000000, 0.000000000000000000, -0.000000000000000000 ) ) ;
#196 = LINE ( 'NONE', #316, #388 ) ;
#197 = DIRECTION ( 'NONE',  ( -0.000000000000000000, 1.000000000000000000, 0.000000000000000000 ) ) ;
#198 = LINE ( 'NONE', #206, #3 ) ;
#199 = EDGE_CURVE ( 'NONE', #8, #361, #196, .T. ) ;
#200 = CARTESIAN_POINT ( 'NONE',  ( 8.741913579725630220E-17, -0.04724409448818897572, -0.3346456692913385988 ) ) ;
#201 = CARTESIAN_POINT ( 'NONE',  ( 0.7716535433070867978, 1.133858267716535639, 0.000000000000000000 ) ) ;
#202 = FACE_OUTER_BOUND ( 'NONE', #370, .T. ) ;
#203 = CARTESIAN_POINT ( 'NONE',  ( -0.04724409448818936430, 1.133858267716535639, 0.05905511811023622659 ) ) ;
#204 = EDGE_CURVE ( 'NONE', #209, #46, #50, .T. ) ;
#205 = VECTOR ( 'NONE', #55, 39.37007874015748143 ) ;
#206 = CARTESIAN_POINT ( 'NONE',  ( -0.04724409448818939206, 1.248031496062992129, 0.05905511811023622659 ) ) ;
#207 = ORIENTED_EDGE ( 'NONE', *, *, #112, .T. ) ;
#208 = DATE_AND_TIME ( #1, #24 ) ;
#209 = VERTEX_POINT ( 'NONE', #21 ) ;
#210 = SECURITY_CLASSIFICATION_LEVEL ( 'unclassified' ) ;
#211 = ORIENTED_EDGE ( 'NONE', *, *, #314, .T. ) ;
#212 = AXIS2_PLACEMENT_3D ( 'NONE', #12, #351, #292 ) ;
#213 = ORIENTED_EDGE ( 'NONE', *, *, #325, .F. ) ;
#214 = DIMENSIONAL_EXPONENTS ( 1.000000000000000000, 0.000000000000000000, 0.000000000000000000, 0.000000000000000000, 0.000000000000000000, 0.000000000000000000, 0.000000000000000000 ) ;
#215 = VECTOR ( 'NONE', #62, 39.37007874015748143 ) ;
#216 = VECTOR ( 'NONE', #321, 39.37007874015748143 ) ;
#217 = ORIENTED_EDGE ( 'NONE', *, *, #37, .T. ) ;
#218 = ORIENTED_EDGE ( 'NONE', *, *, #334, .T. ) ;
#219 = FACE_OUTER_BOUND ( 'NONE', #420, .T. ) ;
#220 = LINE ( 'NONE', #346, #434 ) ;
#221 = EDGE_CURVE ( 'NONE', #46, #148, #258, .T. ) ;
#222 = SHAPE_DEFINITION_REPRESENTATION ( #226, #282 ) ;
#223 = DIRECTION ( 'NONE',  ( -1.480297366166879989E-16, 1.000000000000000000, 0.000000000000000000 ) ) ;
#224 = DIRECTION ( 'NONE',  ( -5.664403186863040002E-17, -1.000000000000000000, 0.000000000000000000 ) ) ;
#225 = DIRECTION ( 'NONE',  ( -1.480297366166879989E-16, 1.000000000000000000, 0.000000000000000000 ) ) ;
#226 = PRODUCT_DEFINITION_SHAPE ( 'NONE', 'NONE',  #386 ) ;
#227 = DIRECTION ( 'NONE',  ( -1.000000000000000000, -2.726378989241888524E-63, -1.101441283070020034E-32 ) ) ;
#228 = CARTESIAN_POINT ( 'NONE',  ( 0.3858267716535429548, 1.248031496062992129, 5.335640612625514099E-18 ) ) ;
#229 = DIRECTION ( 'NONE',  ( -1.000000000000000000, -0.000000000000000000, 0.000000000000000000 ) ) ;
#230 = CC_DESIGN_PERSON_AND_ORGANIZATION_ASSIGNMENT ( #113, #241, ( #38 ) ) ;
#231 = CARTESIAN_POINT ( 'NONE',  ( 0.8188976377952756902, -0.04724409448818897572, 0.05905511811023622659 ) ) ;
#232 = VERTEX_POINT ( 'NONE', #318 ) ;
#233 = VECTOR ( 'NONE', #99, 39.37007874015748143 ) ;
#234 = PLANE ( 'NONE',  #104 ) ;
#235 = APPROVAL ( #45, 'UNSPECIFIED' ) ;
#236 = FACE_OUTER_BOUND ( 'NONE', #377, .T. ) ;
#237 = ORIENTED_EDGE ( 'NONE', *, *, #117, .F. ) ;
#238 = CARTESIAN_POINT ( 'NONE',  ( -3.496765431890256525E-16, 1.133858267716535639, -0.3346456692913385988 ) ) ;
#239 = DIRECTION ( 'NONE',  ( 1.000000000000000000, 0.000000000000000000, 0.000000000000000000 ) ) ;
#240 = ORIENTED_EDGE ( 'NONE', *, *, #341, .F. ) ;
#241 = PERSON_AND_ORGANIZATION_ROLE ( 'design_supplier' ) ;
#242 = ORIENTED_EDGE ( 'NONE', *, *, #360, .F. ) ;
#243 = DIRECTION ( 'NONE',  ( -2.265761274745219945E-16, 1.000000000000000000, 0.000000000000000000 ) ) ;
#244 = ORIENTED_EDGE ( 'NONE', *, *, #37, .F. ) ;
#245 = VECTOR ( 'NONE', #127, 39.37007874015748143 ) ;
#246 = PERSON_AND_ORGANIZATION ( #86, #256 ) ;
#247 = ORIENTED_EDGE ( 'NONE', *, *, #221, .F. ) ;
#248 = VECTOR ( 'NONE', #191, 39.37007874015748143 ) ;
#249 = DATE_AND_TIME ( #338, #137 ) ;
#250 = ORIENTED_EDGE ( 'NONE', *, *, #112, .F. ) ;
#251 = EDGE_CURVE ( 'NONE', #295, #186, #313, .T. ) ;
#252 = ORIENTED_EDGE ( 'NONE', *, *, #296, .T. ) ;
#253 = LINE ( 'NONE', #320, #119 ) ;
#254 = EDGE_LOOP ( 'NONE', ( #329, #384, #211, #340 ) ) ;
#255 = CARTESIAN_POINT ( 'NONE',  ( -0.04724409448818936430, 1.133858267716535639, 0.000000000000000000 ) ) ;
#256 = ORGANIZATION ( 'UNSPECIFIED', 'UNSPECIFIED', '' ) ;
#257 = CARTESIAN_POINT ( 'NONE',  ( -0.04724409448818937818, 1.248031496062992129, 2.667820306312757049E-18 ) ) ;
#258 = LINE ( 'NONE', #162, #9 ) ;
#259 = LINE ( 'NONE', #381, #54 ) ;
#260 = CARTESIAN_POINT ( 'NONE',  ( 0.7716535433070867978, 1.133858267716535639, 0.000000000000000000 ) ) ;
#261 = EDGE_CURVE ( 'NONE', #429, #295, #253, .T. ) ;
#262 = CARTESIAN_POINT ( 'NONE',  ( -0.04724409448818936430, 1.133858267716535639, 0.05905511811023622659 ) ) ;
#263 = ORIENTED_EDGE ( 'NONE', *, *, #261, .F. ) ;
#264 = DIRECTION ( 'NONE',  ( 2.960594732333750117E-16, -1.000000000000000000, 0.000000000000000000 ) ) ;
#265 = VECTOR ( 'NONE', #287, 39.37007874015748143 ) ;
#266 = ADVANCED_FACE ( 'NONE', ( #163 ), #130, .T. ) ;
#267 = LINE ( 'NONE', #260, #416 ) ;
#268 = CARTESIAN_POINT ( 'NONE',  ( 0.3858267716535429548, 1.248031496062992129, 0.005905511811023621965 ) ) ;
#269 = ORIENTED_EDGE ( 'NONE', *, *, #88, .F. ) ;
#270 = CALENDAR_DATE ( 2024, 23, 7 ) ;
#271 = ORIENTED_EDGE ( 'NONE', *, *, #10, .F. ) ;
#272 = EDGE_CURVE ( 'NONE', #63, #280, #160, .T. ) ;
#273 = DATE_AND_TIME ( #4, #155 ) ;
#274 = VERTEX_POINT ( 'NONE', #315 ) ;
#275 = PERSON_AND_ORGANIZATION ( #86, #256 ) ;
#276 = VERTEX_POINT ( 'NONE', #154 ) ;
#277 = AXIS2_PLACEMENT_3D ( 'NONE', #125, #92, #382 ) ;
#278 =( NAMED_UNIT ( * ) PLANE_ANGLE_UNIT ( ) SI_UNIT ( $, .RADIAN. ) );
#279 = VERTEX_POINT ( 'NONE', #283 ) ;
#280 = VERTEX_POINT ( 'NONE', #414 ) ;
#281 = CARTESIAN_POINT ( 'NONE',  ( 6.993530863780502450E-17, 0.000000000000000000, 0.05905511811023622659 ) ) ;
#282 = ADVANCED_BREP_SHAPE_REPRESENTATION ( 'GMCBU-BBM-ECAP', ( #115, #380 ), #323 ) ;
#283 = CARTESIAN_POINT ( 'NONE',  ( 0.7716535433070867978, 1.133858267716535639, -0.3346456692913385988 ) ) ;
#284 = UNCERTAINTY_MEASURE_WITH_UNIT (LENGTH_MEASURE( 1.000000000000000082E-05 ), #147, 'distance_accuracy_value', 'NONE');
#285 = CARTESIAN_POINT ( 'NONE',  ( 1.028540769614594786E-16, -1.314887504654060438E-64, -0.3346456692913385988 ) ) ;
#286 = AXIS2_PLACEMENT_3D ( 'NONE', #328, #427, #364 ) ;
#287 = DIRECTION ( 'NONE',  ( 2.590520390792030120E-16, -1.000000000000000000, 0.000000000000000000 ) ) ;
#288 = PRODUCT ( 'GMCBU-BBM-ECAP', 'GMCBU-BBM-ECAP', '', ( #180 ) ) ;
#289 = DIRECTION ( 'NONE',  ( -0.000000000000000000, 1.000000000000000000, -2.475283096020080175E-31 ) ) ;
#290 = DIRECTION ( 'NONE',  ( -2.265761274745219945E-16, 1.000000000000000000, 0.000000000000000000 ) ) ;
#291 = CC_DESIGN_DATE_AND_TIME_ASSIGNMENT ( #249, #375, ( #386 ) ) ;
#292 = DIRECTION ( 'NONE',  ( 1.000000000000000000, 0.000000000000000000, -0.000000000000000000 ) ) ;
#293 = DIRECTION ( 'NONE',  ( -1.480297366166879989E-16, 1.000000000000000000, 0.000000000000000000 ) ) ;
#294 = PLANE ( 'NONE',  #372 ) ;
#295 = VERTEX_POINT ( 'NONE', #285 ) ;
#296 = EDGE_CURVE ( 'NONE', #274, #232, #417, .T. ) ;
#297 = CARTESIAN_POINT ( 'NONE',  ( -0.04724409448818937818, 0.5669291338582678197, 0.05905511811023622659 ) ) ;
#298 = VECTOR ( 'NONE', #289, 39.37007874015748143 ) ;
#299 = CARTESIAN_POINT ( 'NONE',  ( 0.8188976377952756902, -0.04724409448818897572, -0.3346456692913385988 ) ) ;
#300 = FACE_OUTER_BOUND ( 'NONE', #11, .T. ) ;
#301 = ADVANCED_FACE ( 'NONE', ( #432 ), #333, .T. ) ;
#302 = PERSON_AND_ORGANIZATION ( #86, #256 ) ;
#303 = EDGE_LOOP ( 'NONE', ( #365, #339, #406, #183 ) ) ;
#304 = VECTOR ( 'NONE', #326, 39.37007874015748143 ) ;
#305 = COORDINATED_UNIVERSAL_TIME_OFFSET ( 5, 0, .BEHIND. ) ;
#306 = ORIENTED_EDGE ( 'NONE', *, *, #161, .T. ) ;
#307 = LENGTH_MEASURE_WITH_UNIT ( LENGTH_MEASURE( 0.02539999999999999897 ), #35 );
#308 = ORIENTED_EDGE ( 'NONE', *, *, #314, .F. ) ;
#309 = ADVANCED_FACE ( 'NONE', ( #236 ), #294, .T. ) ;
#310 = ORIENTED_EDGE ( 'NONE', *, *, #102, .T. ) ;
#311 = ORIENTED_EDGE ( 'NONE', *, *, #199, .T. ) ;
#312 = LINE ( 'NONE', #281, #354 ) ;
#313 = LINE ( 'NONE', #48, #298 ) ;
#314 = EDGE_CURVE ( 'NONE', #232, #114, #65, .T. ) ;
#315 = CARTESIAN_POINT ( 'NONE',  ( -0.04724409448818937818, 1.133858267716535639, -0.3346456692913385988 ) ) ;
#316 = CARTESIAN_POINT ( 'NONE',  ( -3.496765431890256525E-16, 1.133858267716535639, 0.000000000000000000 ) ) ;
#317 = FACE_OUTER_BOUND ( 'NONE', #303, .T. ) ;
#318 = CARTESIAN_POINT ( 'NONE',  ( -0.04724409448818919777, -0.04724409448818896184, -0.3346456692913385988 ) ) ;
#319 = EDGE_CURVE ( 'NONE', #279, #327, #267, .T. ) ;
#320 = CARTESIAN_POINT ( 'NONE',  ( 0.3858267716535433989, 0.000000000000000000, -0.3346456692913385988 ) ) ;
#321 = DIRECTION ( 'NONE',  ( 2.773547829391855091E-32, -1.227443918878039981E-16, -1.000000000000000000 ) ) ;
#322 = DIRECTION ( 'NONE',  ( 1.000000000000000000, -5.664403186863040002E-17, 0.000000000000000000 ) ) ;
#323 =( GEOMETRIC_REPRESENTATION_CONTEXT ( 3 ) GLOBAL_UNCERTAINTY_ASSIGNED_CONTEXT ( ( #284 ) ) GLOBAL_UNIT_ASSIGNED_CONTEXT ( ( #147, #278, #110 ) ) REPRESENTATION_CONTEXT ( 'NONE', 'WORKASPACE' ) );
#324 = LINE ( 'NONE', #228, #159 ) ;
#325 = EDGE_CURVE ( 'NONE', #361, #31, #390, .T. ) ;
#326 = DIRECTION ( 'NONE',  ( 0.000000000000000000, -1.000000000000000000, -0.000000000000000000 ) ) ;
#327 = VERTEX_POINT ( 'NONE', #201 ) ;
#328 = CARTESIAN_POINT ( 'NONE',  ( 0.3858267716535433989, -0.02362204724409448786, -0.3346456692913385988 ) ) ;
#329 = ORIENTED_EDGE ( 'NONE', *, *, #153, .F. ) ;
#330 = CARTESIAN_POINT ( 'NONE',  ( 0.3858267716535433989, 0.5669291338582678197, 0.000000000000000000 ) ) ;
#331 = CC_DESIGN_APPROVAL ( #168, ( #424 ) ) ;
#332 = VECTOR ( 'NONE', #355, 39.37007874015748143 ) ;
#333 = PLANE ( 'NONE',  #138 ) ;
#334 = EDGE_CURVE ( 'NONE', #279, #429, #98, .T. ) ;
#335 = APPLICATION_CONTEXT ( 'configuration controlled 3d designs of mechanical parts and assemblies' ) ;
#336 = APPROVAL_DATE_TIME ( #208, #72 ) ;
#337 = EDGE_LOOP ( 'NONE', ( #412, #240, #368, #263, #118, #145, #6, #308 ) ) ;
#338 = CALENDAR_DATE ( 2024, 23, 7 ) ;
#339 = ORIENTED_EDGE ( 'NONE', *, *, #251, .T. ) ;
#340 = ORIENTED_EDGE ( 'NONE', *, *, #398, .F. ) ;
#341 = EDGE_CURVE ( 'NONE', #186, #274, #396, .T. ) ;
#342 = ORIENTED_EDGE ( 'NONE', *, *, #413, .T. ) ;
#343 = PERSON_AND_ORGANIZATION_ROLE ( 'design_owner' ) ;
#344 = ORIENTED_EDGE ( 'NONE', *, *, #413, .F. ) ;
#345 = CC_DESIGN_SECURITY_CLASSIFICATION ( #424, ( #38 ) ) ;
#346 = CARTESIAN_POINT ( 'NONE',  ( 0.3858267716535433989, 1.133858267716535639, -0.3346456692913385988 ) ) ;
#347 = PRODUCT_RELATED_PRODUCT_CATEGORY ( 'detail', '', ( #288 ) ) ;
#348 = DIRECTION ( 'NONE',  ( 0.000000000000000000, 1.000000000000000000, 0.000000000000000000 ) ) ;
#349 = DIRECTION ( 'NONE',  ( 0.000000000000000000, 0.000000000000000000, 1.000000000000000000 ) ) ;
#350 = CARTESIAN_POINT ( 'NONE',  ( 0.7716535433070869088, 0.000000000000000000, 0.000000000000000000 ) ) ;
#351 = DIRECTION ( 'NONE',  ( 0.000000000000000000, 0.000000000000000000, 1.000000000000000000 ) ) ;
#352 = CARTESIAN_POINT ( 'NONE',  ( 0.7716535433070870198, 0.000000000000000000, 0.05905511811023622659 ) ) ;
#353 = EDGE_CURVE ( 'NONE', #280, #276, #139, .T. ) ;
#354 = VECTOR ( 'NONE', #175, 39.37007874015748143 ) ;
#355 = DIRECTION ( 'NONE',  ( 2.590520390792030120E-16, -1.000000000000000000, 0.000000000000000000 ) ) ;
#356 = LINE ( 'NONE', #59, #373 ) ;
#357 = DIRECTION ( 'NONE',  ( -1.000000000000000000, -2.265761274745219945E-16, 0.000000000000000000 ) ) ;
#358 = DIRECTION ( 'NONE',  ( -1.000000000000000000, -2.590520390792030120E-16, 0.000000000000000000 ) ) ;
#359 = AXIS2_PLACEMENT_3D ( 'NONE', #262, #358, #28 ) ;
#360 = EDGE_CURVE ( 'NONE', #8, #274, #60, .T. ) ;
#361 = VERTEX_POINT ( 'NONE', #165 ) ;
#362 = DIRECTION ( 'NONE',  ( -1.000000000000000000, -2.265761274745219945E-16, 0.000000000000000000 ) ) ;
#363 = FACE_OUTER_BOUND ( 'NONE', #44, .T. ) ;
#364 = DIRECTION ( 'NONE',  ( 0.000000000000000000, -1.000000000000000000, 2.475283096020080175E-31 ) ) ;
#365 = ORIENTED_EDGE ( 'NONE', *, *, #97, .T. ) ;
#366 = CC_DESIGN_PERSON_AND_ORGANIZATION_ASSIGNMENT ( #246, #182, ( #386 ) ) ;
#367 = APPROVAL_DATE_TIME ( #407, #235 ) ;
#368 = ORIENTED_EDGE ( 'NONE', *, *, #251, .F. ) ;
#369 = EDGE_CURVE ( 'NONE', #114, #209, #141, .T. ) ;
#370 = EDGE_LOOP ( 'NONE', ( #242, #311, #310, #143 ) ) ;
#371 = CC_DESIGN_APPROVAL ( #72, ( #38 ) ) ;
#372 = AXIS2_PLACEMENT_3D ( 'NONE', #268, #391, #431 ) ;
#373 = VECTOR ( 'NONE', #197, 39.37007874015748143 ) ;
#374 = ORIENTED_EDGE ( 'NONE', *, *, #153, .T. ) ;
#375 = DATE_TIME_ROLE ( 'creation_date' ) ;
#376 = ORIENTED_EDGE ( 'NONE', *, *, #272, .F. ) ;
#377 = EDGE_LOOP ( 'NONE', ( #66, #79, #344, #409 ) ) ;
#378 = LINE ( 'NONE', #96, #103 ) ;
#379 = ADVANCED_FACE ( 'NONE', ( #107 ), #399, .F. ) ;
#380 = AXIS2_PLACEMENT_3D ( 'NONE', #42, #142, #239 ) ;
#381 = CARTESIAN_POINT ( 'NONE',  ( -0.04724409448818905899, -0.04724409448818896184, 0.05905511811023622659 ) ) ;
#382 = DIRECTION ( 'NONE',  ( -3.700743415417190112E-16, 1.000000000000000000, 0.000000000000000000 ) ) ;
#383 = CALENDAR_DATE ( 2024, 23, 7 ) ;
#384 = ORIENTED_EDGE ( 'NONE', *, *, #179, .F. ) ;
#385 = CARTESIAN_POINT ( 'NONE',  ( -0.04724409448818936430, 1.133858267716535639, -0.3346456692913385988 ) ) ;
#386 = PRODUCT_DEFINITION ( 'UNKNOWN', '', #38, #184 ) ;
#387 = LINE ( 'NONE', #94, #248 ) ;
#388 = VECTOR ( 'NONE', #23, 39.37007874015748143 ) ;
#389 = DIRECTION ( 'NONE',  ( -0.000000000000000000, -0.000000000000000000, -1.000000000000000000 ) ) ;
#390 = LINE ( 'NONE', #437, #124 ) ;
#391 = DIRECTION ( 'NONE',  ( -2.259612668843599788E-16, 1.000000000000000000, -1.227443918878039981E-16 ) ) ;
#392 = ORIENTED_EDGE ( 'NONE', *, *, #393, .F. ) ;
#393 = EDGE_CURVE ( 'NONE', #276, #170, #108, .T. ) ;
#394 = DIRECTION ( 'NONE',  ( 0.000000000000000000, -1.000000000000000000, -0.000000000000000000 ) ) ;
#395 = VECTOR ( 'NONE', #293, 39.37007874015748143 ) ;
#396 = LINE ( 'NONE', #238, #157 ) ;
#397 = DIRECTION ( 'NONE',  ( -1.000000000000000000, -2.259612668843599788E-16, 0.000000000000000000 ) ) ;
#398 = EDGE_CURVE ( 'NONE', #63, #114, #34, .T. ) ;
#399 = PLANE ( 'NONE',  #286 ) ;
#400 = DIRECTION ( 'NONE',  ( -1.000000000000000000, -2.265761274745219945E-16, 0.000000000000000000 ) ) ;
#401 = ORIENTED_EDGE ( 'NONE', *, *, #88, .T. ) ;
#402 = PERSON_AND_ORGANIZATION_ROLE ( 'creator' ) ;
#403 = ORIENTED_EDGE ( 'NONE', *, *, #204, .T. ) ;
#404 = ADVANCED_FACE ( 'NONE', ( #363 ), #67, .F. ) ;
#405 = DATE_TIME_ROLE ( 'classification_date' ) ;
#406 = ORIENTED_EDGE ( 'NONE', *, *, #102, .F. ) ;
#407 = DATE_AND_TIME ( #270, #164 ) ;
#408 = ORIENTED_EDGE ( 'NONE', *, *, #369, .T. ) ;
#409 = ORIENTED_EDGE ( 'NONE', *, *, #353, .F. ) ;
#410 = CARTESIAN_POINT ( 'NONE',  ( 0.3858267716535433989, 0.000000000000000000, 0.000000000000000000 ) ) ;
#411 = COORDINATED_UNIVERSAL_TIME_OFFSET ( 5, 0, .BEHIND. ) ;
#412 = ORIENTED_EDGE ( 'NONE', *, *, #296, .F. ) ;
#413 = EDGE_CURVE ( 'NONE', #276, #122, #198, .T. ) ;
#414 = CARTESIAN_POINT ( 'NONE',  ( 0.8188976377952755792, 1.248031496062992129, 0.05905511811023622659 ) ) ;
#415 = PLANE ( 'NONE',  #277 ) ;
#416 = VECTOR ( 'NONE', #133, 39.37007874015748143 ) ;
#417 = LINE ( 'NONE', #385, #265 ) ;
#418 = ADVANCED_FACE ( 'NONE', ( #300 ), #27, .T. ) ;
#419 = CARTESIAN_POINT ( 'NONE',  ( -2.451833574313678778E-16, 1.133858267716535639, -0.3346456692913385988 ) ) ;
#420 = EDGE_LOOP ( 'NONE', ( #376, #116, #408, #403, #178, #36 ) ) ;
#421 = LINE ( 'NONE', #57, #151 ) ;
#422 = CARTESIAN_POINT ( 'NONE',  ( -3.496765431890256525E-16, 1.133858267716535639, 0.000000000000000000 ) ) ;
#423 = FACE_OUTER_BOUND ( 'NONE', #254, .T. ) ;
#424 = SECURITY_CLASSIFICATION ( '', '', #210 ) ;
#425 = CARTESIAN_POINT ( 'NONE',  ( 0.8188976377952756902, 0.5669291338582678197, 0.05905511811023622659 ) ) ;
#426 = FACE_OUTER_BOUND ( 'NONE', #40, .T. ) ;
#427 = DIRECTION ( 'NONE',  ( -1.101441283070020034E-32, 2.475283096020080175E-31, 1.000000000000000000 ) ) ;
#428 = CC_DESIGN_DATE_AND_TIME_ASSIGNMENT ( #273, #405, ( #424 ) ) ;
#429 = VERTEX_POINT ( 'NONE', #167 ) ;
#430 = CARTESIAN_POINT ( 'NONE',  ( 0.8188976377952755792, 1.133858267716535639, 0.000000000000000000 ) ) ;
#431 = DIRECTION ( 'NONE',  ( -1.000000000000000000, -2.259612668843599788E-16, 0.000000000000000000 ) ) ;
#432 = FACE_OUTER_BOUND ( 'NONE', #433, .T. ) ;
#433 = EDGE_LOOP ( 'NONE', ( #218, #306, #217, #47 ) ) ;
#434 = VECTOR ( 'NONE', #227, 39.37007874015748143 ) ;
#435 = AXIS2_PLACEMENT_3D ( 'NONE', #189, #224, #13 ) ;
#436 = ADVANCED_FACE ( 'NONE', ( #136 ), #234, .T. ) ;
#437 = CARTESIAN_POINT ( 'NONE',  ( -3.414809992080329023E-16, 0.5669291338582678197, 0.000000000000000000 ) ) ;
#438 = APPROVAL_ROLE ( '' ) ;
ENDSEC;
END-ISO-10303-21;
